» » »

Lordi - Blood Red Sandman Bass

Artists:  A B C D E F G H I J K L M N O P Q R S T U V W X Y Z # 

Blood Red Sandman Bass

(ver. 1) Click to play this song!
Lordi
 Rating:
3.3/5 (6 votes)

 Blood Red Sandman lessons Tabs too difficult? Try these video lessons and learn fast
 
                   Tuning (this tab):Standerd [ E A D G B E ] 
   Difficulty: intermediate 

Intro
G|----------------------------------------------------|
D|----------------------------------------------------|
A|----------------------------------------------------|
E|8--6-8-6--6-8--8--6-8-6-8--8--6-8-6--6-8--8--6-8-6-8|

Verse
G|--------------------------------------------------------------|
D|--------------------------------------------------------------|2X
A|3-3-3-3-3-3-3-3-3-3-3-3-3-3-3-3----10-8--6-5-----------6------|
E|----------------------------------------------6-8--6-8---8----|

G|------------------------------------------------------------------|
D|------------------------------------------------------------------|
A|----------------------------------3-3-3-3-3-3-3-3-----------------|
E|6-6-6-6-6-6-6-6--3-3-3-3-3-3-3-3-------------------4-4-4-4-4-4-4-4|

G|------------------------------------------------------------------|
D|------------------------------------------------------------------|
A|----------------------------------3-3-3-3-3-3-3-3-----------------|
E|6-6-6-6-6-6-6-6--3-3-3-3-3-3-3-3-------------------6-6-6-6-6-6-6-6|

Chorus
G|-----------------------------------| 
D|-----------------------------------|3X
A|3-3-3-3--------------------3-3-3-3-|  
E|---------4-4-4-4--6-6-6-6----------|  

G|-----------------------------------------------------|
D|-----------------------------------------------------|
A|3-3-3-3-------------------3-3-3-3-------------3-3-3-3|
E|---------4-4-4-4--6-6-6-6----------4--6-6-6-6--------|

Intro
G|-----------------------------------------------|
D|-----------------------------------------------|
A|-----------------------------------------------|
E|8--8-6-8-6--6-8--8--6-8-6-8--8--6-8-6--6-8--6-8|

Verse
G|--------------------------------------------------------------|
D|--------------------------------------------------------------|2X
A|3-3-3-3-3-3-3-3-3-3-3-3-3-3-3-3----10-8--6-5-----------6------|
E|----------------------------------------------6-8--6-8---8----|

G|------------------------------------------------------------------|
D|------------------------------------------------------------------|
A|----------------------------------3-3-3-3-3-3-3-3-----------------|
E|6-6-6-6-6-6-6-6--3-3-3-3-3-3-3-3-------------------4-4-4-4-4-4-4-4|

G|------------------------------------------------------------------|
D|------------------------------------------------------------------|
A|----------------------------------3-3-3-3-3-3-3-3-----------------|
E|6-6-6-6-6-6-6-6--3-3-3-3-3-3-3-3-------------------6-6-6-6-6-6-6-6|

Chorus
G|-----------------------------------| 
D|-----------------------------------|3X
A|3-3-3-3--------------------3-3-3-3-|  
E|---------4-4-4-4--6-6-6-6----------|  

G|-----------------------------------------------------|
D|-----------------------------------------------------|
A|3-3-3-3-------------------3-3-3-3-------------3-3-3-3|
E|---------4-4-4-4--6-6-6-6----------4--6-6-6-6--------|

Solo (This bit's supposed to be played by a keyboard with a bells effect but you can play too)

G|---------------------------------------------------------------------|
D|---3--2----------------------3--2------------------------------------|
A|5--------5-----------------5-------5---------------------------------|
E|------------8-6--5--4--3---------------8-6--10-8-6-5-10-8-6-5---2---3|

Verse
G|-----------------------------------------------------------|
D|-----------------------------------------------------------|
A|----------3-3---------------------------------3-3--3-3-3---|
E|6-6--3-3-------4-4--4--6-6--6-6-6--3-3--3-3-3-------------6|

Chorus
G|-------------------------------------|  |-----|
D|-------------------------------------|2X|-----|
A|3-3------------3-3--3-3-3---------3-3|  |3-3--|
E|-----4-4--6-6--------------4-4-4-----|  |----6|

G|----------------------------------|  |---------------------------------|
D|----------------------------------|3X|---------------------------------|
A|5-5-5-5-----------3-3-3-3--5-5-5-5|  |5-5-5-5-----------3-3-3-3--5-5---|
E|---------6-6-6-6------------------|  |---------6-6-6-6----------------6|

Intro\Outro
G|---------------------------------------------------------------|
D|---------------------------------------------------------------|
A|--------------------------------------------------------5-4----|
E|8--6-8-6--6-8--8--6-8-6-8--8--6-8-6--6-8--8--6-8-6-8--------6-3|

There are some mestakes so im about 90% sure its correct So enjoy!!!
            
Submit corrections


        Blood Red Sandman lessons Hard to play? Try these video lessons and learn fast Blood Red Sandman lessons
        
↑ Back to top | Tablatures and chords for acoustic guitar and electric guitar, ukulele, drums are parodies/interpretations of the original songs. You may use it for private study, scholarship, research or language learning purposes only