» » »

Lordi - Blood Red Sandman Tabs

Artists:  A B C D E F G H I J K L M N O P Q R S T U V W X Y Z # 

Blood Red Sandman Tabs

(ver. 1) Click to play this song!
Lordi
 Rating:
4/5 (5 votes)

 Blood Red Sandman lessons Tabs too difficult? Try these video lessons and learn fast
 
                Tuning: Drop D (eBGDAD)

Intro
e|----------------------------------------------------------------|
B|----------------------------------------------------------------|
G|----------------------------------------------------------------|
D|10--8-10-8--8-10--10--8-10-8-10--10--8-10-8--8-10--10--8-10-8-10|
A|10--8-10-8--8-10--10--8-10-8-10--10--8-10-8--8-10--10--8-10-8-10|
D|10--8-10-8--8-10--10--8-10-8-10--10--8-10-8--8-10--10--8-10-8-10|

e|-------------------------------------------------------|
B|-------------------------------------------------------|
G|-------------------------------------------------------|
D|10--8-10-8--8-10--10--8-10-8-10--10--8-10-8--8-10--8-10|
A|10--8-10-8--8-10--10--8-10-8-10--10--8-10-8--8-10--8-10|
D|10--8-10-8--8-10--10--8-10-8-10--10--8-10-8--8-10--8-10|

Verse 1
|---------------------------------------------------------------------|
|---------------------------------------------------------------------|
|---------------------------------------------------------------------|
|--------------5-3--1-0--8-10---8-10-13-10--------------5-3--1-0--8-10|
|--------------5-3--1-0--8-10---8-10-13-10--------------5-3--1-0--8-10|
|xxxxxxxxxxxxx-5-3--1-0--8-10---8-10-13-10-xxxxxxxxxxxx-5-3--1-0--8-10|

|-------------|
|-------------|
|-------------|
|---8-10-13-10|
|---8-10-13-10|
|---8-10-13-10|

(Bridge is bass only)

...Like a sawblade, cutting, deep.
|----------------------------------|
|----------------------------------|
|----------------------------------|
|-----------------------------8-8-8|
|-----------------------------8-8-8|
|-----------------------------8-8-8|

Chorus
|-------------------------------------------------------------|
|-------------------------------------------------------------|
|-------------------------------------------------------------|
|8-10----10-8----6-8----8-10----6810----10-8----6-8-10----6810|
|8-10----10-8----6-8----8-10----6810----10-8----6-8-10----6810|
|8-10----10-8----6-8----8-10----6810----10-8----6-8-10----6810|

|-----------------------|
|-----------------------|
|-----------------------|
|----10-8----6-8----8-10|
|----10-8----6-8----8-10|
|----10-8----6-8----8-10|

|----------------------------------------|
|----------------------------------------|
|----------------------------------------|
|6810----10-8----6-8-10-8-6----10-10-1010|
|6810----10-8----6-8-10-8-6----10-10-1010|
|6810----10-8----6-8-10-8-6----10-10-1010|


Intro Again
|-------------------------------------------------------|
|-------------------------------------------------------|
|-------------------------------------------------------|
|10--8-10-8--8-10--10--8-10-8-10--10--8-10-8--8-10--8-10|
|10--8-10-8--8-10--10--8-10-8-10--10--8-10-8--8-10--8-10|
|10--8-10-8--8-10--10--8-10-8-10--10--8-10-8--8-10--8-10|

Verse 2
|---------------------------------------------------------------------|
|---------------------------------------------------------------------|
|---------------------------------------------------------------------|
|--------------5-3--1-0--8-10---8-10-13-10--------------5-3--1-0--8-10|
|--------------5-3--1-0--8-10---8-10-13-10--------------5-3--1-0--8-10|
|xxxxxxxxxxxxx-5-3--1-0--8-10---8-10-13-10-xxxxxxxxxxxx-5-3--1-0--8-10|

|-------------|
|-------------|
|-------------|
|---8-10-13-10|
|---8-10-13-10|
|---8-10-13-10|

(again, the bridge is bass only)

...Like a sawblade, cutting, deep.
|----------------------------------|
|----------------------------------|
|----------------------------------|
|-----------------------------8-8-8|
|-----------------------------8-8-8|
|-----------------------------8-8-8|

Chorus
|-------------------------------------------------------------|
|-------------------------------------------------------------|
|-------------------------------------------------------------|
|8-10----10-8----6-8----8-10----6810----10-8----6-8-10----6810|
|8-10----10-8----6-8----8-10----6810----10-8----6-8-10----6810|
|8-10----10-8----6-8----8-10----6810----10-8----6-8-10----6810|

|-----------------------|
|-----------------------|
|-----------------------|
|----10-8----6-8----8-10|
|----10-8----6-8----8-10|
|----10-8----6-8----8-10|

|----------------------------------------|
|----------------------------------------|
|----------------------------------------|
|6810----10-8----6-8-10-8-6----10-10-1010|
|6810----10-8----6-8-10-8-6----10-10-1010|
|6810----10-8----6-8-10-8-6----10-10-1010|


|----------------------------------------|
|----------------------------------------|
|----------------------------------------|
|6810----10-8----6-8-10-8-6----10-10-1010|
|6810----10-8----6-8-10-8-6----10-10-1010|
|6810----10-8----6-8-10-8-6----10-10-1010|

Solo
This bit's supposed to be played by a keyboard with a bells effect but you can play too.
|-----------------------------------------------------------------------|
|-----------------------------------------------------------------------|
|-----------------------------------------------------------------------|
|0---3---2---0--10-8---7--6--5-0---3---2---0--10-8----------------------|
|0---3---2---0--10-8---7--6--5-0---3---2---0--10-8----------------------|
|0---3---2---0--10-8---7--6--5-0---3---2---0--10-8---12-10-8-7-12-10-8-7|

|--------------|
|--------------|
|--------------|
|4--------5----|
|4--------5----|
|4--------5----|

(Bridge is just bass + keyboard then the drums come in)
...Like a sawblade, cutting, deep.
|-------------------------------|
|-------------------------------|
|-------------------------------|
|------------------------------8|
|------------------------------8|
|------------------------------8|

Chorus (just guitar + drums this time)
|-------------------------------------------------------------|
|-------------------------------------------------------------|
|-------------------------------------------------------------|
|8-10----10-8----6-8----8-10----6810----10-8----6-8-10----6810|
|8-10----10-8----6-8----8-10----6810----10-8----6-8-10----6810|
|8-10----10-8----6-8----8-10----6810----10-8----6-8-10----6810|

|-----------------------|
|-----------------------|
|-----------------------|
|----10-8----6-8----8-10|
|----10-8----6-8----8-10|
|----10-8----6-8----8-10|

|----------------------------------------|
|----------------------------------------|
|----------------------------------------|
|6810----10-8----6-8-10-8-6----10-10-1010|
|6810----10-8----6-8-10-8-6----10-10-1010|
|6810----10-8----6-8-10-8-6----10-10-1010|

|------------------------------|
|------------------------------|
|------------------------------|
|6810----10-8----6-8-10-8-6----|
|6810----10-8----6-8-10-8-6----|
|6810----10-8----6-8-10-8-6----|

Higher Chorus
|------------------------------------------------------------|
|------------------------------------------------------------|
|------------------------------------------------------------|
|10-12----12-10----8-10----10-12----81012----12-10----8-10-12|
|10-12----12-10----8-10----10-12----81012----12-10----8-10-12|
|10-12----12-10----8-10----10-12----81012----12-10----8-10-12|

|--------------------------|
|--------------------------|
|--------------------------|
|----81012----12-10----8-10|
|----81012----12-10----8-10|
|----81012----12-10----8-10|

|------------------------------------------------------|
|------------------------------------------------------|
|------------------------------------------------------|
|10-12----81012----12-10----8-10-12-10-8-----12-12-1212|
|10-12----81012----12-10----8-10-12-10-8-----12-12-1212|
|10-12----81012----12-10----8-10-12-10-8-----12-12-1212|

Outro
|----------------------------------------------------------------|
|----------------------------------------------------------------|
|----------------------------------------------------------------|
|10--8-10-8--8-10--10--8-10-8-10--10--8-10-8--8-10--10--8-10-8-10|
|10--8-10-8--8-10--10--8-10-8-10--10--8-10-8--8-10--10--8-10-8-10|
|10--8-10-8--8-10--10--8-10-8-10--10--8-10-8--8-10--10--8-10-8-10|

|--------------------------------|
|--------------------------------|
|--------------------------------|
|10--8-10-8--8-10-------11-10-8-5|
|10--8-10-8--8-10-------11-10-8-5|
|10--8-10-8--8-10-------11-10-8-5|
            
Submit corrections


        Blood Red Sandman lessons Hard to play? Try these video lessons and learn fast Blood Red Sandman lessons
        
↑ Back to top | Tablatures and chords for acoustic guitar and electric guitar, ukulele, drums are parodies/interpretations of the original songs. You may use it for private study, scholarship, research or language learning purposes only