» » »

Kings Of Leon - Molly's Chambers Tabs

Artists:  A B C D E F G H I J K L M N O P Q R S T U V W X Y Z # 

Molly's Chambers Tabs

(ver. 1) Click to play this song!
Kings Of Leon
 Rating:
4/5 (4 votes)

 Molly's Chambers lessons Tabs too difficult? Try these video lessons and learn fast
 
                intro
--------------------------
--------------------------
--------------------------
-4-4-4-4-4-4-4------------
-4-4-4-4-4-4-4------------
-2-2-0-2-0-2-0------------ repeat this 24 times,(goes through verse)


chorus,
--------------------------------------------------------------
--------------------------------------------------------------
-8-8-8-8---6-6-6-6---1-1-1-1-1-1-1-1--8-8-8-8--11-11-11-11-11-
-9-9-9-9---7-7-7-7---2-2-2-2-2-2-2-2--9-9-9-9--12-12-12-12-12-
-9-9-9-9---7-7-7-7---2-2-2-2-2-2-2-2--9-9-9-9--12-12-12-12-12-
--------------------------------------------------------------

--------------------------------------------------------------
--------------------------------------------------------------
-1-1-1-1-1-1-1-1-1-1-1-1-1-1-1-1------------------------------
-2-2-2-2-2-2-2-2-2-2-2-2-2-2-2-2------------------------------
-2-2-2-2-2-2-2-2-2-2-2-2-2-2-2-2------------------------------
--------------------------------------------------------------

verse 2
--------------------------
--------------------------
--------------------------
-4-4-4-4-4-4-4------------
-4-4-4-4-4-4-4------------
-2-2-0-2-0-2-0------------  x16

chorus,
--------------------------------------------------------------
--------------------------------------------------------------
-8-8-8-8---6-6-6-6---1-1-1-1-1-1-1-1--8-8-8-8--11-11-11-11-11-
-9-9-9-9---7-7-7-7---2-2-2-2-2-2-2-2--9-9-9-9--12-12-12-12-12-
-9-9-9-9---7-7-7-7---2-2-2-2-2-2-2-2--9-9-9-9--12-12-12-12-12-
--------------------------------------------------------------

--------------------------------------------------------------
--------------------------------------------------------------
-1-1-1-1-1-1-1-1-1-1-1-1-1-1-1-1------------------------------
-2-2-2-2-2-2-2-2-2-2-2-2-2-2-2-2------------------------------
-2-2-2-2-2-2-2-2-2-2-2-2-2-2-2-2------------------------------
--------------------------------------------------------------

solo:

should be here but im still working on it, sorry.

chorus
-------------------------------------------------------------
-------------------------------------------------------------
-8--6--1-1-1-1-1-1-1-1--8-8-8-8--11-11-11-11-11-11-11-11-----
-9--7--2-2-2-2-2-2-2-2--9-9-9-9--12-12-12-12-12-12-12-12-----
-9--7--2-2-2-2-2-2-2-2--9-9-9-9--12-12-12-12-12-12-12-12-----
-------------------------------------------------------------

-----------------------------------
-----------------------------------
-1-1-1-1-1-1-1-1-------------------
-2-2-2-2-2-2-2-2-------------------
-2-2-2-2-2-2-2-2-------------------
-----------------------------------

chorus,
-8-8-8-8---6-6-6-6---1-1-1-1-1-1-1-1--8-8-8---11-11-11-11-11-11-
-9-9-9-9---7-7-7-7---2-2-2-2-2-2-2-2--9-9-9---12-12-12-12-12-12-
-9-9-9-9---7-7-7-7---2-2-2-2-2-2-2-2--9-9-9---12-12-12-12-12-12-
            
Submit corrections


        Molly's Chambers lessons Hard to play? Try these video lessons and learn fast Molly's Chambers lessons
        
↑ Back to top | Tablatures and chords for acoustic guitar and electric guitar, ukulele, drums are parodies/interpretations of the original songs. You may use it for private study, scholarship, research or language learning purposes only