» » »

Kings Of Leon - Milk Tabs

Artists:  A B C D E F G H I J K L M N O P Q R S T U V W X Y Z # 

Milk Tabs

(ver. 3) Click to play this song!
Kings Of Leon
 Rating:
4/5 (4 votes)

 Milk lessons Tabs too difficult? Try these video lessons and learn fast
 
                kings of leon
"milk"
"aha shake heartbreak"

...geat song..and this tab is perfect..and these are the same exactly
...the same chords like the kings play.....enjoy it^^

verse

caleb(matthew doesn`t play in the verse)

e--------------------------------------------|
b--------------------------------------------|
g--------------------------------------------|   repeat until the chorus
d--------------------------------------------|
a---10--10--10--10--10--10--9--9--9--9--9--9-|
E-7---7---7---9---9---9---5--5--5--5--5--5---|

chorus (play the whole chorus 2 times)

caleb

e-----
b-----
g----- repeat 8x
d--5--
a--5--
E--3--

e-----
b-----
g----- repeat 8x
d--7--
a--7--
E--5--

e------|
b------|
g------| repeat 16 x
d--12--|
a--12--|
E--10--|

matthew

e-----
b-----
g--4-- repeat 8x
d--4--
a--2--
E-----

e-----
b-----
g--6-- repeat 8x
d--6--
a--4--
E-----

e-----
b-----
g--7-- repeat 16x
d--7--
a--5--
E-----

bridge

caleb (matthew doesn`t play)

e----------------|
b----------------|
g----------------|
d----------------|
a----10-9---10-9-|
E---7------7-----|


riff 1

matthew (caleb doesn`t play while matthew plays this beatiful riff)

e-------------------------------|
b-------------------------------|
g-------------------------------|
d------0---2----4--4--2--0----0-|
a-0--2---2------------------2---|
E-------------------------------|

e-----------------------------------|
b-----------------------------------|
g-----------------------------------|
d------0---2----4--4--2--0----0s2s4-|
a-0--2---2------------------2-------|
E-----------------------------------|


verse  caleb  (first play just 2 times)

then.....

riff 2

matthew (caleb doesn`t play)

e-----------------------------|
b-----------------------------|
g--x-7-x-4-x-7--4--7--9-------|
d-----------------------------|
a-----------------------------|
E-----------------------------|

e------------------------------|
b------------------------------|
g--x-7-x-4-x-7--4--7--11-------|
d------------------------------|
a------------------------------|
E------------------------------|

verse

chorus

bridge

riff 3

matthew (caleb doesn`t play , repeat until the end....)

e-----------------------------|
b-----------------------------|
g--x-7-x-4-x-7--4--7--9-------|
d-----------------------------|
a-----------------------------|
E-----------------------------|

e------------------------------|
b------------------------------|
g--x-7-x-4-x-7--4--7--11-------|
d------------------------------|
a------------------------------|
E------------------------------|

e------------------------------|
b------------------------------|
g--x-7-x-4-x-7--4-4--7---------|
d------------------------------|
a------------------------------|
E------------------------------|

e------------------------------|
b------------------------------|
g--x-7-x-4-x-7--4-4--2---------|
d------------------------------|
a------------------------------|
E------------------------------|


and that`s it.....
...100% correct.....


legend:

s = slide
x = pull


for questions and comments please send me an email to:

good luck....
...and have fun^^

KOL rule!!!!!!!!!!
            
Submit corrections


        Milk lessons Hard to play? Try these video lessons and learn fast Milk lessons
        
↑ Back to top | Tablatures and chords for acoustic guitar and electric guitar, ukulele, drums are parodies/interpretations of the original songs. You may use it for private study, scholarship, research or language learning purposes only