» » »

Kings Of Leon - Milk Ukulele

Artists:  A B C D E F G H I J K L M N O P Q R S T U V W X Y Z # 

Milk Ukulele

(ver. 1) Click to play this song!
Kings Of Leon
 Rating:
4.3/5 (27 votes)

 Milk lessons Tabs too difficult? Try these video lessons and learn fast
 
                [Intro and Verse]
A|--10-10-10----10-10-10----9-9-9----9-9-9---|
E|-7--7--7--7--9--9--9--9--5-5-5-5--5-5-5-5--|
C|-------------------------------------------|
G|-------------------------------------------|


[Chorus]
A|---------------------------------------------------------------------------------|
E|-7-7-7-7-7-7-7-7-9-9-9-9-9-9-9-9-10-10-10-10-10-10-10-10-10-10-10-10-10-10-10-10-|
C|---------------------------------------------------------------------------------|
G|---------------------------------------------------------------------------------|

A|------------------------------------9----10--9--|
E|-7-7-7-7-7-7-7-7-9-9-9-9-9-9-9-9-5-----7---7----|
C|------------------------------------------------|
G|------------------------------------------------|

A|-----5--7---9--9-7-5--5-----|
E|-5-7--7-------------7-------|
C|----------------------------|(x2)
G|----------------------------| 


[Verse]
A|--10-10-10----10-10-10----9-9-9----9-9-9---|
E|-7--7--7--7--9--9--9--9--5-5-5-5--5-5-5-5--| (x4)
C|-------------------------------------------|
G|-------------------------------------------|


[Chorus]
A|---------------------------------------------------------------------------------|
E|-7-7-7-7-7-7-7-7-9-9-9-9-9-9-9-9-10-10-10-10-10-10-10-10-10-10-10-10-10-10-10-10-|
C|---------------------------------------------------------------------------------| (x3)
G|---------------------------------------------------------------------------------|

A|------------------------------------9----10--9--|
E|-7-7-7-7-7-7-7-7-9-9-9-9-9-9-9-9-5-----7---7----|
C|------------------------------------------------|
G|------------------------------------------------|


[Solo]
A|--------------------------------------------------------------------------------|
E|--------------------------------------------------------------------------------|
C|--------------------------------------------------------------------------------|
G|-x-7-x-4-x-7-x-4/9---x-7-x-4-x-7-x-4/11---x-7-x-4-x-7-x-4-7---x-7-x-4-x-7-x-4-2-|
            
Submit corrections


        Milk lessons Hard to play? Try these video lessons and learn fast Milk lessons
        
↑ Back to top | Tablatures and chords for acoustic guitar and electric guitar, ukulele, drums are parodies/interpretations of the original songs. You may use it for private study, scholarship, research or language learning purposes only