» » »

Kings Of Leon - Knocked Up Bass

Artists:  A B C D E F G H I J K L M N O P Q R S T U V W X Y Z # 

Knocked Up Bass

(ver. 3) Click to play this song!
Kings Of Leon
 Rating:
4/5 (4 votes)

 Knocked Up lessons Tabs too difficult? Try these video lessons and learn fast
 
                Tuning:

riff 1 repeat through intro and verse 1+2

G|---------------------------------------------------------|
D|-----7---7----7----7--7--7--7--7--7----11-11-11--11--11--|
A|---------------------------------------------------------|
E|---5---5---5----5---5--5--5--5--5-----9--9--9---9---9----|

G|---------------------------------------------------------------------------------------|
D|-----11---11---11--11------------------------------------------------------------------|
A|---------------------------------------------------------------------------------------|
E|--9----9-----9---9---------------------------------------------------------------------|

riff 2 chorus x2

G|------------------------------------------------------------------------------|
D|-----------------------------------------------0---2----------5-----2---------|
A|---4----2----------4-----2------------0---2------------0---2------------------|
E|-----4-----4---0------4-----4---0----3----------------3-----------------------|

he sings "where we gonna go" so here you play riff 1

riff 3 play for verse 3

G|---------------------------------------------------------|
D|-----7---7----7----7--7--7--7--7--7----11-11-11--11--11--|
A|---------------------------------------------------------|
E|---5---5---5----5---5--5--5--5--5-----9--9--9---9---9----|

G|---------------------------|
D|-----12---12-----12----12--|
A|---------------------------|
E|--10----10-----10---10-----|

order

riff 1 intro plus verse 1+2

chorus riff 2 x2

where we gonna go riff 1

verse 3 riff 3

chorus riff 2 x2

where we gonna go riff 3

riff 3 for rest of song
            
Submit corrections


        Knocked Up lessons Hard to play? Try these video lessons and learn fast Knocked Up lessons
        
↑ Back to top | Tablatures and chords for acoustic guitar and electric guitar, ukulele, drums are parodies/interpretations of the original songs. You may use it for private study, scholarship, research or language learning purposes only