» » »

Kings Of Leon - Knocked Up Bass

Artists:  A B C D E F G H I J K L M N O P Q R S T U V W X Y Z # 

Knocked Up Bass

(ver. 1) Click to play this song!
Kings Of Leon
 Rating:
4/5 (4 votes)

 Knocked Up lessons Tabs too difficult? Try these video lessons and learn fast
 
                This song is really easy and pretty fun to play.  Im 100% sure this song is correct.

Intro - 0:09 - I like playing this line throughout the song an octave lower starting at 
open E but the bassist plays this:

---9--9--9--9--9--9--9--13--13--13--13--13--13--13--13---------|
---------------------------------------------------------------|
-7--7--7--7--7--7--7--11--11--11--11--11--11--11--11-----------|
---------------------------------------------------------------|
slide to the A flat

Verse 1 - 0:51 - same as intro

---9--9--9--9--9--9--9--13--13--13--13--13--13--13--13---------|
---------------------------------------------------------------|
-7--7--7--7--7--7--7--11--11--11--11--11--11--11--11-----------|
---------------------------------------------------------------|

Chorus - 2:04 - not 100% sure

--------------------------------------------------------|
----------------------------------6-7--------------6-7--|
--------------------------------------------------------|
-55-4-5-4-0---55-4-5-4-0---55-4-5-------55-4-5-4-0------|

Verse 2: 2:20 - same as Verse 1 except you add an A at the end like so:

---9--9--9--9--9--9--9--13--13--13--13--13--13--14--14---------|
---------------------------------------------------------------|
-7--7--7--7--7--7--7--11--11--11--11--11--11--12--12-----------|
---------------------------------------------------------------|

Chorus - 2:59 - same as first chorus but afterwords you play the same thing as verse 1 
so:

--------------------------------------------------------|
----------------------------------6-7--------------6-7--|
--------------------------------------------------------|
-55-4-5-4-0---55-4-5-4-0---55-4-5-------55-4-5-4-0------|

---9--9--9--9--9--9--9--13--13--13--13--13--13--13--13---------|
---------------------------------------------------------------|
-7--7--7--7--7--7--7--11--11--11--11--11--11--11--11-----------|
---------------------------------------------------------------|


Interlude - 3:30 - play this for about 2 and a half minutes

---9--9--9--9--9--9--9--13--13--13--13--13--13--14--14---------|
---------------------------------------------------------------|
-7--7--7--7--7--7--7--11--11--11--11--11--11--12--12-----------|
---------------------------------------------------------------|


Verse 3 - 5:58 - same as verse 1

---9--9--9--9--9--9--9--13--13--13--13--13--13--13--13---------|
---------------------------------------------------------------|
-7--7--7--7--7--7--7--11--11--11--11--11--11--11--11-----------|
---------------------------------------------------------------|

Outro - 6:37 - same as verse 2

---9--9--9--9--9--9--9--13--13--13--13--13--13--14--14---------|
---------------------------------------------------------------|
-7--7--7--7--7--7--7--11--11--11--11--11--11--12--12-----------|
---------------------------------------------------------------|


with any corrections or Kings of leon requests!
            
Submit corrections


        Knocked Up lessons Hard to play? Try these video lessons and learn fast Knocked Up lessons
        
↑ Back to top | Tablatures and chords for acoustic guitar and electric guitar, ukulele, drums are parodies/interpretations of the original songs. You may use it for private study, scholarship, research or language learning purposes only