» » »

Kings Of Leon - Dancing On My Own Tabs

Artists:  A B C D E F G H I J K L M N O P Q R S T U V W X Y Z # 

Dancing On My Own Tabs

(ver. 3) Click to play this song!
Kings Of Leon
 Rating:
3.5/5 (27 votes)

 Dancing On My Own lessons Tabs too difficult? Try these video lessons and learn fast
 
                Guitar 1 (intro)
e|----8--------3--------1----------0------0--------------------------|
B|-------------------------------------------------------------------|
G|-------------------------------------------------------------------|
D|-------------------------------------------------------------------| 
A|-------------------------------------------------------------------|
E|--8--------3--------1---------1-----1------------------------------|
       (x4)     (x4)     (x8)

(verse)
Guitar 2 (Somebody Said You've Got a New Friend)
e|---------------------------1--0------------------------------------|
B|-------------------------------------------------------------------|
G|-------------------------------------------------------------------|
D|-------------------------------------------------------------------| 
A|----10------5-------3----------------------------------------------|
E|----8-------3-------1----------------------------------------------|


Guitar 1
e|-----8-----3------1-----1-0----------------------------------------|
B|-------------------------------------------------------------------|
G|-------------------------------------------------------------------|
D|-------------------------------------------------------------------| 
A|-------------------------------------------------------------------|
E|-----8-----3------1-----------------------------------------------|

(Pre-Chorus)
Guitar 1
e|--8---3---1----1-0-----5-----3-----1-------1--0--------------------|
B|-------------------------------------------------------------------|
G|-------------------------------------------------------------------|
D|-------------------------------------------------------------------| 
A|-------------------------------------------------------------------|
E|-------------------------------------------------------------------|

Guitar 2
e|-------------------------------------------1--0--------------------|
B|-------------------------------------------------------------------|
G|-------------------------------------------------------------------|
D|-------------------------------------------------------------------| 
A|---10------5----3----------7----5---3------------------------------|
E|----8------3----1----------5----3---1------------------------------|

(Chorus)
Both Guitars
e|-------------------------------------------------------------------|
B|-------------------------------------------------------------------|
G|-------------------------------------------------------------------|
D|---10-----5----3---------------3-----5----3------------------------| 
A|---10-----5----3---------------3-----5----3------------------------|
E|----8-----3----1---------------5-----3----1------------------------|
       (x4)  (x4)  (x8)   Then    (x4)  (x4)  (x8)

Solo
e|----8----8---15---12-----15---12---8------8\-----------------------|
B|-------------------------------------------------------------------|
G|-------------------------------------------------------------------|
D|-------------------------------------------------------------------| 
A|-------------------------------------------------------------------|
E|-------------------------------------------------------------------|            
Submit corrections


        Dancing On My Own lessons Hard to play? Try these video lessons and learn fast Dancing On My Own lessons
        
↑ Back to top | Tablatures and chords for acoustic guitar and electric guitar, ukulele, drums are parodies/interpretations of the original songs. You may use it for private study, scholarship, research or language learning purposes only