» » »

Kings Of Leon - Dancing On My Own Bass

Artists:  A B C D E F G H I J K L M N O P Q R S T U V W X Y Z # 

Dancing On My Own Bass

(ver. 1) Click to play this song!
Kings Of Leon
 Rating:
4/5 (4 votes)

 Dancing On My Own lessons Tabs too difficult? Try these video lessons and learn fast
 
                Dancing On My Own Bass Tab®

x2
G|-----------------------------|
D|--10(x2)---------------------|
A|-----------10(x3)-8(x5)------|
E|-----------------------------|

x4
G|---------------|
D|--10-----------|
A|------10-8-----|
E|---------------|

G|---------------|
D|---------------|
A|--12-10-8------|
E|---------------|

x2
G|-----------------------------|
D|--10(x2)---------------------|
A|-----------10(x3)-8(x5)------|
E|-----------------------------|

x2
G|-----------------------------|
D|-----------------------------|
A|--12(x2)-10(x3)-8(x5)--------|
E|-----------------------------|

x2
G|-----------------------------|
D|--10(x2)---------------------|
A|-----------10(x3)-8(x5)------|
E|-----------------------------|

G|------------|
D|------------|
A|--8(x5)-----|
E|------------|

G|-----------------------------|
D|--10(x2)---------------------|
A|-----------10(x3)-8(x5)------|
E|-----------------------------|

G|-----------------------------|
D|-----------------------------|
A|--12(x2)-10(x3)-8(x5)--------|
E|-----------------------------|

x2
G|-----------------------------|
D|--10(x2)---------------------|
A|-----------10(x3)-8(x5)------|
E|-----------------------------|

x2
G|-----------------------------|
D|-----------------------------|
A|--12(x2)-10(x3)-8(x5)--------|
E|-----------------------------|

x2
G|-----------------------------|
D|--10(x2)---------------------|
A|-----------10(x3)-8(x5)------|
E|-----------------------------|

x2
G|-----------------------------|
D|-----------------------------|
A|--12(x2)-10(x3)-8(x5)--------|
E|-----------------------------|

x2
G|-----------------------------|
D|--10(x2)---------------------|
A|-----------10(x3)-8(x5)------|
E|-----------------------------|

G|-----------------------------|
D|-----------------------------|
A|--12(x2)-10(x3)-8(x5)--------|
E|-----------------------------|

G|--------------------------------|
D|--------------------------------|
A|--12(x2)-10(x3)-10h12-8---------|
E|--------------------------------|
            
Submit corrections


        Dancing On My Own lessons Hard to play? Try these video lessons and learn fast Dancing On My Own lessons
        
↑ Back to top | Tablatures and chords for acoustic guitar and electric guitar, ukulele, drums are parodies/interpretations of the original songs. You may use it for private study, scholarship, research or language learning purposes only