Home » J » Johnny Cash »

Johnny Cash - Gods Gonna Cut You Down Tabs

Artists:  A B C D E F G H I J K L M N O P Q R S T U V W X Y Z # 

Gods Gonna Cut You Down Tabs

(ver. 3) Click to play this song!
Johnny Cash
INTRO:


e----0---0---0--0---0---0---0---0---0--------0-----0-----0----
B-------------------------------------------------------------
G-------------------------------------------------------------
D------------------------------------------3---3/5---5/7---0--
A--0---0---3--0-------0---3---0---3---------------------------
E-----------------3-------------------5/0---------------------



CHORUS:  [PLAY THIS FOR EACH CHORUS]
 
           You can run on for a long time
 
e---0--0---0---0---0----
B-----------------------
G-----------------------
D-----------------------
A----0---3---0-------0--
E-3--------------3------


Run on for a long time

e---0--0---0---0---0----
B-----------------------
G-----------------------
D-----------------------
A--5--5--7---0-------0--
E---------------3------


Run on for a long time

e----0---0---0---0-
B------------------
G------------------
D------------------
A--3---0-------0---
E----------3-------

Sooner or later God'll cut you down

e---0--0----0---0--
B------------------
G------------------
D------------------
A-2---0-------0----
E---------3--------

Sooner or later God'll cut you down

e---0--0---0---0--
B-----------------
G-----------------
D-----------------
A-3---5--7---0----
E-----------------






VERSE 1:        [PLAY THIS FOR ALL VERSES]

Go tell that long tongue liar

e----0---0---0---0-
B------------------
G------------------
D------------------
A--3---0-------0---
E----------3-------

Go and tell that midnight rider

e----0---0---0---0-
B------------------
G------------------
D------------------
A--3---0-------0---
E----------3-------

Tell the rambler, the gambler, the back biter

e----0---0---0---0-
B------------------
G------------------
D------------------
A--3---0-------0---
E----------3-------


Tell 'em that God's gonna cut 'em down

e---0--0----0---0--
B------------------
G------------------
D------------------
A-2---0-------0----
E---------3--------

Tell 'em that God's gonna cut 'em down

e---0--0---0---0--
B-----------------
G-----------------
D-----------------
A-3---5--7---0----
E-----------------



VERSE 3:
Well my goodness gracious let me tell you the news
My head's been wet with the midnight dew
I've been down on bended knee talkin' to the man from Galilee
He spoke to me in the voice so sweet
I thought I heard the shuffle of the angel's feet
He called my name and my heart stood still
When he said, "John go do My will!"

VERSE 4:
Go tell that long tongue liar
Go and tell that midnight rider
Tell the rambler, the gambler, the back biter
Tell 'em that God's gonna cut 'em down
Tell 'em that God's gonna cut 'em down

CHORUS:
You can run on for a long time
Run on for a long time
Run on for a long time
Sooner or later God'll cut you down
Sooner or later God'll cut you down

VERSE 5:
Well you may throw your rock and hide your hand
Workin' in the dark against your fellow man
But as sure as God made black and white
What's done in the dark will be brought to the light

CHORUS:
You can run on for a long time
Run on for a long time
Run on for a long time
Sooner or later God'll cut you down
Sooner or later God'll cut you down

VERSE 6:
Go tell that long tongue liar
Go and tell that midnight rider
Tell the rambler, the gambler, the back biter
Tell 'em that God's gonna cut you down
Tell 'em that God's gonna cut you down
Tell 'em that God's gonna cut you down             
Submit corrections

↑ Back to top | Tablatures and chords for acoustic guitar and electric guitar, ukulele, drums are parodies/interpretations of the original songs. You may use it for private study, scholarship, research or language learning purposes only