Home » J » Johnny Cash »

Johnny Cash - I Walk The Line Tabs

Artists:  A B C D E F G H I J K L M N O P Q R S T U V W X Y Z # 

I Walk The Line Tabs

(ver. 1) Click to play this song!
Johnny Cash
Intro:
e-----------------------------------------------------------------------------
B-----------------------------------------------------------------------------
G-----------------------------------------------------------------------------
D--------------------0---00---------------------------------------------------
A--------0---00--2-4---0----4-2-0---00-------22-------22----------------------
E--0-2-4---0----------------------0----4-2-0----0-2-0----0-2-0----------------


                                Verse:
e------------------------------------------
B------------------------------------------
G------------------------------------------
D------------------------------------------
A--2---2---2-------------------------------
E----0---0---0----------------------------- just repeat a lot.....

this is the easiest song ever....
            
Submit corrections

↑ Back to top | Tablatures and chords for acoustic guitar and electric guitar, ukulele, drums are parodies/interpretations of the original songs. You may use it for private study, scholarship, research or language learning purposes only