Home » J » Johnny Cash »

Johnny Cash - Tennessee Flattop Box Tabs

Artists:  A B C D E F G H I J K L M N O P Q R S T U V W X Y Z # 

Tennessee Flattop Box Tabs

(ver. 1) Click to play this song!
Johnny Cash
Verse
e|-------------------------------------------------------------------------|
B|-------------------------------------------------------------------------|
G|0-0-0-0--------0-------0----0----------------------------0-0-2--0--------|
D|----------2--2-----2-3---------2-3-2-0----0-2-3-3-0-2-3------------3-2-0-|
A|------------------------------------------------------------------------3|
E|-------------------------------------------------------------------------|

e|-------------------------------------------------------------|
B|-------------------------------------------------------------|
G|--------------------0--0-----------0--0-0-0-0--0--0--0-------|
D|------------------2------0--0-----------------2--2--2--2-0---|
A|----0--2-3-------------------------------------------------3-|
E|-3-----------------------------------------------------------|

e|---------------------------------------------------------------------1-|
B|---------------------------------------------------------------------1-|
G|---------------0-0-----0-0--0-0--0-0-----0---0-0---------------------2-|
D|-------------2-----2p0---------------3-2---2------3-2-0------0-2-3-----|
A|----0--2-3-----------------------------------------------3-3-----------|
E|-3---------------------------------------------------------------------|

Listen to the song to get the tune of the song.
At the end repeat the chord until the chorus.
            
Submit corrections

↑ Back to top | Tablatures and chords for acoustic guitar and electric guitar, ukulele, drums are parodies/interpretations of the original songs. You may use it for private study, scholarship, research or language learning purposes only