Home » J » John Denver »

John Denver - Thank God Im A Country Boy Tabs

Artists:  A B C D E F G H I J K L M N O P Q R S T U V W X Y Z # 

Thank God Im A Country Boy Tabs

(ver. 4) Click to play this song!
John Denver
[Intro]

e|--------------------------------------------------------------------|
B|--------------------------0-----------------------------------------|
G|-------------—----0–--2-2---2--------------0------------------------|
D|--0-0-2-0---2-0-2--------------0-2-2-2-0-2--------------------------|
A|--------------------------------------------------------------------|
E|--------------------------------------------------------------------|

[Verse]

e|--------------------------------------------------------------------|
B|--------------------0-----------0-----------------------------------|
G|----------------0-2-----2-2-2-2---2-----0-0-0-2-0-------------------|
D|--0-0-2-0---2-2-----------------------0-----------------------------|
A|--------------------------------------------------------------------|
E|--------------------------------------------------------------------|

[Chorus]

e|--------------------------------0-----0-----------------------------|
B|------0-----------0---------0-3-----0---0-3-0--------0--0-----------|
G|--0-2-----2-0-2-----2-0---2--------------------2-0-2------2-0--0-2-0|
D|--------------------------------------------------------------------|
A|--------------------------------------------------------------------|
E|--------------------------------------------------------------------|
            
Submit corrections

↑ Back to top | Tablatures and chords for acoustic guitar and electric guitar, ukulele, drums are parodies/interpretations of the original songs. You may use it for private study, scholarship, research or language learning purposes only