Home » J » John Denver »

John Denver - Take Me Home, Country Roads Tabs

Artists:  A B C D E F G H I J K L M N O P Q R S T U V W X Y Z # 

Take Me Home, Country Roads Tabs

(ver. 2) Click to play this song!
John Denver
"Hey Guys..... Im pretty sure this is right so here it is....

-----------------------------------------------------------------------------|          Country 
– John Denver
-----------------------------------------------------------------------------|

e|-3--------------0-------------2---------------------------------------|
B|-0--------------0-------------3---------------------------------------|
G|-0--------------0-------------1---------------------------------------|
D|-0--------------2-------------0---------------------------------------|
A|-1--------------1-------------x---------------------------------------|
E|-2--------------0-------------x---------------------------------------|
   ALMOST HEAVEN  WEST VIRGINIA BLUE RIDGE MOUNTAINS,


e|-0---------3-------3-----------------0-------------------------------|
B|-1---------0-------0-----------------0-------------------------------|
G|-0---------0-------0-----------------0-------------------------------|
D|-2---------0-------0-----------------2-------------------------------|
A|-3---------1-------1-----------------1-------------------------------|
E|-x---------2-------2-----------------0-------------------------------|
   SHENADOAH RIVER.  LIFE IS OLD THERE OLDER THAN THE TREES,


e|-2---------------------------0------------3--------------------------|
B|-3---------------------------1------------0--------------------------|
G|-1---------------------------0------------0--------------------------|
D|-0---------------------------2------------0--------------------------|
A|-x---------------------------3------------1--------------------------|
E|-x---------------------------x------------2--------------------------|
   YOUNGER THAN THE MOUNTAINS, GROWING LIKE A BREEZE.


e|---------3--------------2-----------0-----------0--------------------|
B|---------0--------------3-----------0-----------1--------------------|
G|---------0--------------1-----------0-----------0--------------------|
D|---------0--------------0-----------2-----------2--------------------|
A|---------1--------------x-----------1-----------3--------------------|
E|---------2--------------x-----------0-----------x--------------------|
   COUNTRY ROADS, TAKE ME HOME TO THE PLACE, I BELONG


e|---------3---------------2--------------0-------------3--------------|
B|---------0---------------3--------------1-------------0--------------|
G|---------0---------------1--------------0-------------0--------------|
D|---------0---------------0--------------2-------------0--------------|
A|---------1---------------x--------------3-------------1--------------|
E|---------2---------------x--------------x-------------2--------------|
   WEST VIRGINIA, MOUNTAIN MOMMA, TAKE ME HOME, COUNTRY ROADS.


e|-3----------------0-----------------2---------------------------------|
B|-0----------------0-----------------3---------------------------------|
G|-0----------------0-----------------1---------------------------------|
D|-0----------------2-----------------0---------------------------------|
A|-1----------------1-----------------x---------------------------------|
E|-2----------------0-----------------x---------------------------------|
   ALL MY MEMORIES  GATHER ROUND HER, MINER'S LADY,


e|-0-----------3-----------3--------------0--------------------|
B|-1-----------0-----------0--------------0--------------------|
G|-0-----------0-----------0--------------0--------------------|
D|-2-----------0-----------0--------------2--------------------|
A|-3-----------1-----------1--------------1--------------------|
E|-x-----------2-----------2--------------0--------------------|
   STRANGER TO BLUE WATER. DARK AND DUSTY PAINTED ON THE SKY


e|-2------------------------0------------3--------------------------|
B|-3------------------------1------------0--------------------------|
G|-1------------------------0------------0--------------------------|
D|-0------------------------2------------0--------------------------|
A|-x------------------------3------------1--------------------------|
E|-x------------------------x------------2--------------------------|
   MISTY TASTE OF MOONSHINE TEAR DROP IN MY EYE.


e|---------3--------------2-----------0-----------0--------------------|
B|---------0--------------3-----------0-----------1--------------------|
G|---------0--------------1-----------0-----------0--------------------|
D|---------0--------------0-----------2-----------2--------------------|
A|---------1--------------x-----------1-----------3--------------------|
E|---------2--------------x-----------0-----------x--------------------|
   COUNTRY ROADS, TAKE ME HOME TO THE PLACE, I BELONG


e|---------3---------------2--------------0-------------3--------------|
B|---------0---------------3--------------1-------------0--------------|
G|---------0---------------1--------------0-------------0--------------|
D|---------0---------------0--------------2-------------0--------------|
A|---------1---------------x--------------3-------------1--------------|
E|---------2---------------x--------------x-------------2--------------|
   WEST VIRGINIA, MOUNTAIN MOMMA, TAKE ME HOME, COUNTRY ROADS.

e|-0----------2------------3-------------------------------------------|
B|-0----------3------------0-------------------------------------------|
G|-0----------1------------0-------------------------------------------|
D|-2----------0------------0-------------------------------------------|
A|-1----------x------------1-------------------------------------------|
E|-0----------x------------2-------------------------------------------|
   I HEAR HER VOICE IN THE MORNIN' HOURS SHE CALLS ME

e|-----0-------3--------------2------------------0---------------------|
B|-----1-------0--------------3------------------0---------------------|
G|-----0-------0--------------1------------------0---------------------|
D|-----2-------0--------------0------------------2---------------------|
A|-----3-------1--------------x------------------1---------------------|
E|-----x-------2--------------x------------------0---------------------|
   THE RADIO REMINDS ME OF MY HOME FAR AWAY, AND DRIVIN' DOWN

e|-----1--------------0--------------3-------------------------------|
B|-----1--------------1--------------0-------------------------------|
G|-----2--------------0--------------0-------------------------------|
D|-----3--------------2--------------0-------------------------------|
A|-----3--------------3--------------1-------------------------------|
E|-----1--------------x--------------2-------------------------------|
   THE ROAD I GET THE FEELIN' THAT I SHOULD HAVE BEEN HOME

e|-2----------2---------------------------------------------------------|
B|-3----------1---------------------------------------------------------|
G|-1----------2---------------------------------------------------------|
D|-0----------0---------------------------------------------------------|
A|-x----------0---------------------------------------------------------|
E|-x----------x---------------------------------------------------------|
   YESTERDAY, YESTERDAY.

e|---------3--------------2-----------0-----------0--------------------|
B|---------0--------------3-----------0-----------1--------------------|
G|---------0--------------1-----------0-----------0--------------------|
D|---------0--------------0-----------2-----------2--------------------|
A|---------1--------------x-----------1-----------3--------------------|
E|---------2--------------x-----------0-----------x--------------------|
   COUNTRY ROADS, TAKE ME HOME TO THE PLACE, I BELONG


e|---------3---------------2--------------0-------------3--------------|
B|---------0---------------3--------------1-------------0--------------|
G|---------0---------------1--------------0-------------0--------------|
D|---------0---------------0--------------2-------------0--------------|
A|---------1---------------x--------------3-------------1--------------|
E|---------2---------------x--------------x-------------2--------------|
   WEST VIRGINIA, MOUNTAIN MOMMA, TAKE ME HOME, COUNTRY ROADS.
"            
Submit corrections

↑ Back to top | Tablatures and chords for acoustic guitar and electric guitar, ukulele, drums are parodies/interpretations of the original songs. You may use it for private study, scholarship, research or language learning purposes only