Home » J » John Denver »

John Denver - Take Me Home, Country Roads Bass

Artists:  A B C D E F G H I J K L M N O P Q R S T U V W X Y Z # 

Take Me Home, Country Roads Bass

(ver. 2) Click to play this song!
John Denver
"Ideally this should be played on a double bass but I don't own one :(

Bass is slower than I have shown in the tab, I wanted to save space so you don't 
have to keep scrolling too much :) please rate!

Intro - No Bass

Verse
G|------------------------------------------------------------------|
D|-7-------7-----------11---------------9-------7-----------7-------|
A|-----7-------7---9--------9---9---7-------7-------5---5-7-----7---|
E|------------------------------------------------------------------|

G|----------------------------------------------------------7---6---|
D|-7-------7-------7-----------11---------------9-------9---------9-|
A|-----7-------7-------7---9--------9---9---7-------7---------------|
E|------------------------------------------------------------------|

Chorus
G|--------------------------------------------------------------------------|
D|-7-------7-------7-------7------------9-------9---------------------------|
A|-----7-------7-------7------------7-------7-------9-------9---9-7-5-------|
E|-----------------------------9-10---------------------9---------------5---|

G|-7---6--------------------------------------------7---6-------------------|
D|-------9-7-------7------------9---------------7---------9-7-------7-------|
A|-------------7------------7-------7-------5-------------------7-------7---|
E|---------------------9-10-------------7-9---------------------------------|

Verse

Bridge
G|----------------------------------7---6---------------------------|
D|-----------------7-------7---9-11-------9-7---6-------9-------9---|
A|-9-------7-----------7--------------------------9-7-------7-------|
E|------------------------------------------------------------------|

G|------------------7---6-----------------------------------9-------|
D|--------------7---------9-7---6-------9-------9-------9-----------|
A|-9---9---10---------------------9-7-------7-------7---------------|
E|------------------------------------------------------------------|

Final Choruses

G|----------------------------------------------------------7---6---|
D|-7-------7------------9-------9---------------------------------9-|
A|-----7------------7-------7-------9-------9---9-7-5---------------|
E|-------------9-10---------------------9---------------5-----------|

G|------------------------------------------7---6-------------------|
D|-7-------7------------9---------------7---------9-7-------7-------|
A|-----7------------7-------7-------5-------------------7-------7---|
E|-------------9-10-------------7-9---------------------------------|

G|----------------------------------------------------------7---6---|
D|-7-------7------------9-------9---------------------------------9-|
A|-----7------------7-------7-------9-------9---9-7-5---------------|
E|-------------9-10---------------------9---------------5-----------|

G|------------------------------------------7---6-------------------|
D|-7-------7------------9---------------7---------9-7-------7---6---|
A|-----7------------7-------7-------5-------------------7---------9-|
E|-------------9-10-------------7-9---------------------------------|

Outro
G|------------------------------------------------------------------------|
D|-----9-------9---7-------7---6-------9-------9---7-------7-------7------|
A|-7-------7-----------7---------9-7-------7-----------7-------5-7--------|
E|------------------------------------------------------------------------|
"            
Submit corrections

↑ Back to top | Tablatures and chords for acoustic guitar and electric guitar, ukulele, drums are parodies/interpretations of the original songs. You may use it for private study, scholarship, research or language learning purposes only