Home » J » John Denver »

John Denver - Take Me Home, Country Roads Bass

Artists:  A B C D E F G H I J K L M N O P Q R S T U V W X Y Z # 

Take Me Home, Country Roads Bass

(ver. 1) Click to play this song!
John Denver
"G|-----------------|-----------------|-----------------|-----------------|
D|-7---------------|-7---------------|-7---------------|-7---------------|
A|---------7-------|---------7-------|---------7-------|---------7-------|
E|-----------------|-----------------|-----------------|-----------------|


Verse

G|-----------------|-----------------|-----------------|-----------------|
D|-7---------------|-7---------------|---------11------|-----------------|
A|---------7-------|---------7-------|-9---------------|-9-------9-------|
E|-----------------|-----------------|-----------------|-----------------|

G|-----------------|-----------------|-----------------|-----------------|
D|---------9-------|---------7-------|-----------------|-7---------------|
A|-7---------------|-7---------------|-5-------5-------|---------7-------|
E|-----------------|-----------------|-----------------|-----------------|

G|-----------------|-----------------|-----------------|-----------------|
D|-7---------------|-7---------------|-7---------------|---------11------|
A|---------7-------|---------7-------|---------7-------|-9---------------|
E|-----------------|-----------------|-----------------|-----------------|

G|-----------------|-----------------|-----------------|-7---------------|
D|-----------------|---------9-------|---------9-------|---------11--9---|
A|-9-------9-------|-7---------------|-7---------------|-----------------|
E|-----------------|-----------------|-----------------|-----------------|


Chorus

G|-----------------|-----------------|-----------------|-----------------|
D|-7---------------|-7---------------|-7---------------|---------9-------|
A|---------7-------|---------7-------|---------4---5---|-7---------------|
E|-----------------|-----------------|-----------------|-----------------|

G|-----------------|-----------------|-----------------|-----------------|
D|---------9-------|-----------------|-----------------|---------7-------|
A|-7---------------|-9-------4-------|-9-------9---7---|-5---------------|
E|-----------------|-----------------|-----------------|-----------------|

G|-7---------------|-----------------|-----------------|-----------------|
D|---------11--9---|-7---------------|-7---------------|---------9-------|
A|-----------------|---------7-------|---------4---5---|-7---------------|
E|-----------------|-----------------|-----------------|-----------------|

G|-----------------|-----------------|-7---------------|-----------------|
D|-----------------|---------7-------|---------11--9---|-7---------------|
A|-7-------2---4---|-7---------------|-----------------|---------7-------|
E|-----------------|-----------------|-----------------|-----------------|

G|-----------------|
D|-7---------------|
A|---------7-------|
E|-----------------|


Bridge

G|-----------------|-----------------|-----------------|-----------------|
D|-----------------|-----------------|-7---------------|-7-------9---11--|
A|-9---------------|-7---------------|---------7-------|-----------------|
E|-----------------|-----------------|-----------------|-----------------|

G|-7---------------|-----------------|-----------------|-----------------|
D|---------11--9---|-7---------------|---------9-------|---------9-------|
A|-----------------|---------11--9---|-7---------------|-7---------------|
E|-----------------|-----------------|-----------------|-----------------|

G|-----------------|-----------------|-7---------------|-----------------|
D|-----------------|-----------------|---------11--9---|-7---------------|
A|-9-------9-------|-10------11------|-----------------|---------11--9---|
E|-----------------|-----------------|-----------------|-----------------|

G|-----------------|-----------------|-----------------|-9---------------|
D|---------9-------|---------9-------|---------9-------|-----------------|
A|-7---------------|-7---------------|-7---------------|-----------------|
E|-----------------|-----------------|-----------------|-----------------|
		
"            
Submit corrections

↑ Back to top | Tablatures and chords for acoustic guitar and electric guitar, ukulele, drums are parodies/interpretations of the original songs. You may use it for private study, scholarship, research or language learning purposes only