» » »

John Denver - Country Roads Tabs

Artists:  A B C D E F G H I J K L M N O P Q R S T U V W X Y Z # 

Country Roads Tabs

(ver. 2) Click to play this song!
John Denver
 Rating:
4/5 (4 votes)

 Country Roads lessons Tabs too difficult? Try these video lessons and learn fast
 
                  G           G  Em         Em  D              D    C             G
e|------------------------------2--------------2-----------------------------|
B|0---0-------0---0---------0---3----------0---3----1-------------0----------|
G|0---0-------0---0---------0---2----2---------2----0-------------0----------|
D|0---0---H2--0---2----0--2-2-----------------------2--2--2-0--H2-0----------|
A|2---2-------0---3---------3-----------------------3-------------0----------|
E|3---3----------------------------------------------------------------------|
  Al most heaven West Virginia blue ridge mountains Shenandoah river

               G   Em             Em    D                       D   C
e|--------------------------------------2-----------------------2------------|
B|-------------0---0---------------0----3----------------0------3---1--------|
G|-------------0---0-0----0----2---0----2---2----2---2----------2---0---0----|
D|-0---0--H2---0---2---------------2--------------------------------2--------|
A|-------------0---3---------------3--------------------------------3--------|
E|---------------------------------------------------------------------------|
  Life is old here older than the trees younger than the mountains blow-in

             G                     G             D         Em        C
e|-----------------------------------------------2-------------------0-------|
B|-----------0---------------------0----0/-------3---0-----0----0-3--1-------|
G|-0---2-----0-------------0--2----0-----2---0---2------2--0---------0-------|
D|-----------0---------------------0-----------------------2---------2-------|
A|-----------0---------------------0-----------------------3---------3-------|
E|---------------------------------------------------------------------------|
  like a breeze. (Chorus) Country roads take me home to a place I belong  

               G            D             C           G
e|-0----0------3------------2-------------0----------------------------------|
B|---------3---0----0-------3-0--0/-------1-----------0----------------------|
G|-------------0-------2/0--2-----2---0---0----0--2---0----------------------|
D|-------------0--------------------------2-----------0----------------------|
A|-------------2--------------------------3-----------0----------------------|
E|-------------3-------------------------------------------------------------|
  West Vir gin ia, mountain mama take me home country roads

  Em          D           G                 G      C             G      
e|------------2------------------------------------0-------------------------|
B|0-----------3-----------0---0---0---0/----0------1-1-1--1-1----0-----------|
G|0--0----0---2-----0--2--0-------------2---0---0--0-------------0--2--0-----|
D|2-----------4-----------0-----------------0------2-------------0-----------|
A|3-----------------------0-----------------0------3-------------0-----------|
E|---------------------------------------------------------------------------|
  I here the voice in the morning she calls me the radio reminds me of her

   D         D       Em              D              C          
e|-2---------2-----------------------2--------------0------------------------|
B|-3---0---0-3-------0--0---0---0----3--------------1------------------------|
G|-2---------2---2---0---------------2---2--2--2----0--0----0---0--2---------|
D|-------------------2------------------------------2------------------------|
A|-------------------3------------------------------3------------------------|
E|---------------------------------------------------------------------------|
  home far away and drivin down the road I get the feeling that I should

   C                    D          D7
e|----------------------2----------2-----------------------------------------|
B|-1-----------------0--3------0---1-----------------------------------------|
G|-0----0----0----2-----2---2------2-----------------------------------------|
D|-2-------------------------------0-----------------------------------------|
A|-3-------------------------------------------------------------------------|
E|---------------------------------------------------------------------------|
  have been home yesterday, yesterday.  (to Chorus)            
Submit corrections


        Country Roads lessons Hard to play? Try these video lessons and learn fast Country Roads lessons
        
↑ Back to top | Tablatures and chords for acoustic guitar and electric guitar, ukulele, drums are parodies/interpretations of the original songs. You may use it for private study, scholarship, research or language learning purposes only