» » »

Interpol - Summer Well Tabs

Artists:  A B C D E F G H I J K L M N O P Q R S T U V W X Y Z # 

Summer Well Tabs

(ver. 2) Click to play this song!
Interpol
 Rating:
4/5 (4 votes)

 Summer Well lessons Tabs too difficult? Try these video lessons and learn fast
 
                SUMMER WELL

You feel the plastics that seal your body
They wont stop this rain, hey, hey
I was your eye in the night when the prophets fell
I said it looks like your summer well

daniel:
|------------------------------------------------------|
|------------------------------------------------------|
|--7---7---7---6---s-11----11----11----11----11----etc-|
|----9---9---9---7-s----12----12----12----12----12-etc-|
|------------------------------------------------------|
|------------------------------------------------------|

I want to stay magical
I want to stay yearning

daniel:
|--------------------------------------------|
|--------------------------------------------|
|--2---2---2---2---2---2---2---2-------------|
|----4---4---4---4---4---4---4---4-----------|
|--------------------------------------------|
|--------------------------------------------|

daniel:
|------------------------------------------------------|
|------------------------------------------------------|
|--7---7---7---6---s-11----11----11----11----11----etc-|
|----9---9---9---7-s----12----12----12----12----12-etc-|
|------------------------------------------------------|
|------------------------------------------------------|

I want to feel up on your life
I miss you but it looks like you summered well

daniel:
|--------------------------------------------|
|------------------------------2--------------|
|--2---2---2---2---2---2---2-----------------|
|----4---4---4---4---4---4---4---4-----------|
|--------------------------------------------|
|--------------------------------------------|

daniel:
|-------------------------------------------------------|
|-------------------------------------------------------|
|-7---7---7---7---6---6---6---6---9----9----9----9------|
|---9---9---9---9---7---7---7---7--11---11---11---11----|
|-------------------------------------------------------|
|-------------------------------------------------------|

|--------------------------------------------------|
|---------------------14~--------------------------| last notes
|--13----13----13----------11----11----11----11----| eight times 
|-----14----14----14----------12----12----12----12-|
|--------------------------------------------------|
|--------------------------------------------------|

|-------------------------------------------------------|
|-------------------------5-----------------------------|
|-7---7---7---7---6---6-------6---9----9----9----9------|
|---9---9---9---9---7---7---7---7--11---11---11---11----|
|-------------------------------------------------------|
|-------------------------------------------------------|

|---------------------------------------------|
|--------------------14-----------------------|
|--13----13----13----------11----11----11-----|
|-----14----14----14----14----12----12-----12-|
|---------------------------------------------|
|---------------------------------------------|

All the while the protest will shine the same
But you will never notice
It's alright
I rely on the process the mind will frame
They will never take this free from me


daniel:(11 = eleven)
|---------------------------------------------|
|---------------------------------------------|
|---------------------------------------------|
|---------------------------------------------|
|-99999999-77777777-1111111111111111-99999999-|
|---------------------------------------------|

|--------------------------------------------------------------|
|--------------------------------------------------------------|
|--------------------------------------------------------------|
|--------------------------------------------------------------|
|-99999999-121212121212121212121212-77777777-1111111111111111--| 2x
|--------------------------------------------------------------|

It's alright


daniel:
|-------------------------------------------------------|
|-------------------------------------------------------|
|--7---7---7---6---s-9----s-11----11----11----11----etc-|
|----9---9---9---7-s---11-s----12----12----12----12-etc-|
|-------------------------------------------------------|
|-------------------------------------------------------|

I miss you babe
I want you back
The signs we gave

daniel:
|--------------------------------------------|
|--------------------------------------------|
|--2---2---2---2---2---2---2---2-------------|
|----4---4---4---4---4---4---4---4-----------|
|--------------------------------------------|
|--------------------------------------------|

Weren't those signs supposed to last

daniel:
|-------------------------------------------------------|
|-------------------------------------------------------|
|--7---7---7---6---s-9----s-11----11----11----11----etc-|
|----9---9---9---7-s---11-s----12----12----12----12-etc-|
|-------------------------------------------------------|
|-------------------------------------------------------|

The rainy days
The sun was back
The signs we gave

daniel:
|--------------------------------------------|
|--------------------------------------------|
|--2---2---2---2---2---2---2---2-------------|
|----4---4---4---4---4---4---4---4-----------|
|--------------------------------------------|
|--------------------------------------------|
So what was that


daniel:
|--------------------------------------------------------------------|
|--------------------------------------------------------------------|
|--7---7---7---6---s-9----s-11----11----11----11----13----13---14-16-|
|----9---9---9---7-s---11-s----12----12----12----12----14---14-16-16-|
|--------------------------------------------------------------------|
|--------------------------------------------------------------------|
We have ways to make the seasons touch these words
So let me take this
Cover your eyes, or go
Wait until it fades


--daniel then just plys the normal verse twice

All the while the protest will shine the same
But you will never notice
It's alright
I rely on the process the mind will frame
They will never take this free from me


--daniel "its alright part"

It's alright
It's alright
It's alright

dont know if pauls is just playing the picking
part of daniel as chords. (also transfer 
the  "its alright" chorus to the chords from the
verse)
            
Submit corrections


        Summer Well lessons Hard to play? Try these video lessons and learn fast Summer Well lessons
        
↑ Back to top | Tablatures and chords for acoustic guitar and electric guitar, ukulele, drums are parodies/interpretations of the original songs. You may use it for private study, scholarship, research or language learning purposes only