» » »

Interpol - Summer Well Tabs

Artists:  A B C D E F G H I J K L M N O P Q R S T U V W X Y Z # 

Summer Well Tabs

(ver. 1) Click to play this song!
Interpol
 Rating:
4/5 (4 votes)

 Summer Well lessons Tabs too difficult? Try these video lessons and learn fast
 
                --------------------------------------------------------------------------
-------------------------------------------------------------------------------

Esta es mi primera tablatura. Estoy muy seguro que esta correcta, pues la saque despues 
de ver varios videos en vivo y compararlas con la version del disco. Las correcciones 
son bien recibidas.

Tuning: Standard

Intro: (no hay guitarra)

The fevered plastics that seal your body
They won't stop this rain hey, hey
I was your eye in the night when the prophets fell
I said it looks like you summer well

Parte 1: (No hay Guitarra 2 hasta despues de la Parte 2).

I want to stay magical

Guitarra 1 (Daniel):
e|-------------------------------------------------------------------|
B|-------------------------------------------------------------------|
G|--7-----7-----7-----7-----6------11------11------11------11--------|
D|-----9-----9-----9-----9------7------12------12------12------12----|
A|-------------------------------------------------------------------|
E|-------------------------------------------------------------------|

I want to stay yearning

Guitarra 1 (Daniel):
e|------------------------------------------------------------|
B|------------------------------------------------------------|
G|--11------11------11------11------11------11------11--------|
D|------12------12------12------12------12------12------12----|
A|------------------------------------------------------------|
E|------------------------------------------------------------|

(Nobody told you, nobody told you)

Guitarra 1 (Daniel):
e|----------------------------------------------------|
B|----------------------------------------------------|
G|--2-----2-----2-----2-----2-----2-----2-----2-------|
D|-----4-----4-----4-----4-----4-----4-----4-----4----|
A|----------------------------------------------------|
E|----------------------------------------------------|

I want to feel up on your life

Guitarra 1 (Daniel):
e|-------------------------------------------------------------------|
B|-------------------------------------------------------------------|
G|--7-----7-----7-----7-----6------11------11------11------11--------|
D|-----9-----9-----9-----9------7------12------12------12------12----|
A|-------------------------------------------------------------------|
E|-------------------------------------------------------------------|

I miss you but it looks like you summered well

Guitarra 1 (Daniel):
e|------------------------------------------------------------|
B|------------------------------------------------------------|
G|--11------11------11------11------11------11------11--------|
D|------12------12------12------12------12------12------12----|
A|------------------------------------------------------------|
E|------------------------------------------------------------|

e|----------------------------------------------------|
B|----------------------------------------------------|
G|--2-----2-----2-----2-----2-----2-----2-----3-------|
D|-----4-----4-----4-----4-----4-----4-----4-----4----|
A|----------------------------------------------------|
E|----------------------------------------------------|

Coro:

All the while all the protests that shined the same

Guitarra 1 (Daniel):
e|----------------------------------------------------|
B|----------------------------------------------------|
G|--7-----7-----7-----7-----6-----6-----6-----6-------|
D|-----9-----9-----9-----9-----7-----7-----7-----7----|
A|----------------------------------------------------|
E|----------------------------------------------------|

But you will never notice

Guitarra 1 (Daniel):
e|--------------------------------------------------------|
B|--------------------------------------------------------|
G|--9------9------9------9------13------13------13--------|
D|-----11-----11-----11-----11------14------14------14----|
A|--------------------------------------------------------|
E|--------------------------------------------------------|

It's alright

Guitarra 1 (Daniel):
e|-----------------------------------------------------------------------------|
B|--14-------------------------------------------------------------------------|
G|----------11------11------11------11------11------11------11------11---------|
D|------14------12------12------12------12------12------12------12-------12----|
A|-----------------------------------------------------------------------------|
E|-----------------------------------------------------------------------------|

I rely on the process, don't mind the frame

Guitarra 1 (Daniel):
e|----------------------------------------------------|
B|--------------------------------------5-------------|
G|--7-----7-----7-----7-----6-----6-----------6-------|
D|-----9-----9-----9-----9-----7-----7-----7-----7----|
A|----------------------------------------------------|
E|----------------------------------------------------|

They will never take this dream from me

Guitarra 1 (Daniel):
e|------------------------------------------------------------------------------------------------|
B|------------------------------------------------------14----------------------------------------|
G|--9------9------9------9------13------13------13--------------11------11-------11------11-------|
D|-----11-----11-----11-----11------14------14------14------14------12------12------12------12----|
A|------------------------------------------------------------------------------------------------|
E|------------------------------------------------------------------------------------------------|

Parte 2: (El rasgueo es diferente en vivo que en la version del disco, asi que es 
cuestion que escuches la diferencia entre ellas y toques la que mas prefieras)

It's alright
(I'll make it back)
It's alright
(It's all the way behind us)
It's alright

Guitarra 1 (Daniel):
e|------------------------------------------------------------------------|
B|------------------------------------------------------------------------|
G|------------------------------------------------------------------------|
D|------------------------------------------------------------------------|
A|--9--9-9-9-9-9-9-7--7-7-7-7-7-7-11--11-11-11-11-11-11-9--9-9-9-9-9-9----|
E|------------------------------------------------------------------------|

e|------------------------------------------|
B|------------------------------------------|
G|------------------------------------------|
D|------------------------------------------|
A|--9--9-9-9-9-9-9-12--12-12-12-12-12-12----|
E|------------------------------------------|

e|-------------------------------------------------------------------------------|
B|-------------------------------------------------------------------------------|
G|-------------------------------------------------------------------------------|
D|-------------------------------------------------------------------------------|
A|--12--12-12-12-12-12-12-7--7-7-7-7-7-7-11--11-11-11-11-11-11-9--9-9-9-9-9-9----|
E|-------------------------------------------------------------------------------|

e|------------------------------------------|
B|------------------------------------------|
G|------------------------------------------|
D|------------------------------------------|
A|--9--9-9-9-9-9-9-12--12-12-12-12-12-12----|
E|------------------------------------------|

e|---------------------------|
B|---------------------------|
G|---------------------------|
D|---------------------------|
A|--12--12-12-12-12-12-12----|
E|---------------------------|

Parte 3:

I miss you babe

Guitarra 1 (Daniel):
e|----------------------------------|
B|----------------------------------|
G|--7-----7-----7-----7-----6-------|
D|-----9-----9-----9-----9-----7----|
A|----------------------------------|
E|----------------------------------|

Guitarra 2 (Paul):
e|-------------------------------|
B|--3-----3-----3-----3----------|
G|-----4-----4-----4-----4--6----|
D|-------------------------------|
A|-------------------------------|
E|-------------------------------|

I want you back

Guitarra 1 (Daniel):
e|-----------------------------------|
B|-----------------------------------|
G|--9------11------11------11--------|
D|-----11------12------12------12----|
A|-----------------------------------|
E|-----------------------------------|

Guitarra 2 (Paul):
e|----------------------------|
B|--5------7------5-----------|
G|-----------------------7----|
D|----------------------------|
A|----------------------------|
E|----------------------------|

The signs we gave

Guitarra 1 (Daniel):
e|------------------------------------------------------------|
B|------------------------------------------------------------|
G|--11------11------11------11------11------11------11--------|
D|------12------12------12------12------12------12------12----|
A|------------------------------------------------------------|
E|------------------------------------------------------------|

Guitarra 2 (Paul):
e|----------------------| Se repite varias veces
B|--7-----7-----7-------|
G|-----7-----7-----7----| (No estoy muy seguro de como va el rasgueo.
D|----------------------|  Escuchen la cancion para seguir el ritmo.)
A|----------------------|
E|----------------------|

Weren't those signs supposed to last?

Guitarra 1 (Daniel):
e|----------------------------------------------------|
B|----------------------------------------------------|
G|--2-----2-----2-----2-----2-----2-----2-----2-------|
D|-----4-----4-----4-----4-----4-----4-----4-----4----|
A|----------------------------------------------------|
E|----------------------------------------------------|

Guitarra 2 (Paul):
e|----------------------| Se repite varias veces.
B|--7-----7-----7-------|
G|-----6-----6-----6----| (Al igual que lo anterior, escuchen la
D|----------------------|  cancion o videos en vivo para oir el ritmo)
A|----------------------|
E|----------------------|

The rainy days

Guitarra 1 (Daniel):
e|----------------------------------|
B|----------------------------------|
G|--7-----7-----7-----7-----6-------|
D|-----9-----9-----9-----9-----7----|
A|----------------------------------|
E|----------------------------------|

Guitarra 2 (Paul):
e|-------------------------------|
B|--3-----3-----3-----3----------|
G|-----4-----4-----4-----4--6----|
D|-------------------------------|
A|-------------------------------|
E|-------------------------------|

The summer's back

Guitarra 1 (Daniel):
e|-----------------------------------|
B|-----------------------------------|
G|--9------11------11------11--------|
D|-----11------12------12------12----|
A|-----------------------------------|
E|-----------------------------------|

Guitarra 2 (Paul):
e|----------------------------|
B|--5------7------5-----------|
G|-----------------------7----|
D|----------------------------|
A|----------------------------|
E|----------------------------|

The signs we gave

Guitarra 1 (Daniel):
e|------------------------------------------------------------|
B|------------------------------------------------------------|
G|--11------11------11------11------11------11------11--------|
D|------12------12------12------12------12------12------12----|
A|------------------------------------------------------------|
E|------------------------------------------------------------|

Guitarra 2 (Paul):
e|-------------------------|  Se repite varias veces.
B|--7-----7-----7----------|
G|-----7-----7-----7-------|  (No muy seguro del rasgueo)
D|-------------------------|
A|-------------------------|
E|-------------------------|

So what was that?

Guitarra 1 (Daniel):
e|----------------------------------------------------|
B|----------------------------------------------------|
G|--2-----2-----2-----2-----2-----2-----2-----2-------|
D|-----4-----4-----4-----4-----4-----4-----4-----4----|
A|----------------------------------------------------|
E|----------------------------------------------------|

Guitarra 2 (Paul):
e|----------------------| Se repite varias veces.
B|--7-----7-----7-------|
G|-----6-----6-----6----| (No muy seguro del rasgueo)
D|----------------------|
A|----------------------|
E|----------------------|

You know we have ways

Guitarra 1 (Daniel):
e|-----------------------------------------------------------------------------------------|
B|-----------------------------------------------------------------------------------------|
G|--7-----7-----7-----7-----6-----9------11------11------11------11------11------11--------|
D|-----9-----9-----9-----9-----7-----11------12------12------12------12------12------12----|
A|-----------------------------------------------------------------------------------------|
E|-----------------------------------------------------------------------------------------|

Guitarra 2 (Paul):
e|---------------------------------------------------|
B|--3-----3-----3-----3----------5----7----5---------|
G|-----4-----4-----4-----4--6-------------------7----|
D|---------------------------------------------------|
A|---------------------------------------------------|
E|---------------------------------------------------|

e|----------------------|
B|--7-----7-----7-------| (No muy seguro del rasgueo)
G|-----7-----7-----7----|
D|----------------------|
A|----------------------|
E|----------------------|

To make the seasons touch these ones

Guitarra 1 (Daniel):
e|------------------------------------------------------|
B|------------------------------------------------------|
G|--13------13------14--------2-----2-----2-----2-------|
D|------14------14---------------4-----4-----4-----4----|
A|------------------------------------------------------|
E|------------------------------------------------------|

e|----------------------------|
B|--------------2-------------|
G|--2-----2----------2--------|
D|-----4-----4-----4-----4----|
A|----------------------------|
E|----------------------------|

Guitarra 2 (Paul):
e|----------------------|  Se repite varias veces.
B|--7-----7-----7-------|
G|-----7-----7-----7----|  (No muy seguro del rasgueo)
D|----------------------|
A|----------------------|
E|----------------------|

e|----------------------| Se repite varias veces.
B|--7-----7-----7-------|
G|-----6-----6-----6----| (No muy seguro del rasgueo)
D|----------------------|
A|----------------------|
E|----------------------|

So let me take this

Guitarra 1 (Daniel):
e|----------------------------|
B|----------------------------|
G|--7-----7-----7-----7-------|
D|-----9-----9-----9-----9----|
A|----------------------------|
E|----------------------------|

Guitarra 2 (Paul):
e|----------------------------|
B|--3-----3-----3-----3-------|
G|-----4-----4-----4-----4----|
D|----------------------------|
A|----------------------------|
E|----------------------------|

Cover your eyes

Guitarra 1 (Daniel):
e|--------------------------------|
B|--------------------------------|
G|--6-----9------11------11-------|
D|-----7-----11------12------12---|
A|--------------------------------|
E|--------------------------------|

Guitarra 2 (Paul):
e|---------------------|
B|---------5------7----|
G|--6------------------|
D|---------------------|
A|---------------------|
E|---------------------|

Look away until it fades

Guitarra 1 (Daniel):

e|--------------------------------------------------------------------|
B|--------------------------------------------------------------------|
G|--11------11------11------11------11------11------11------11--------|
D|------12------12------12------12------12------12------12------12----|
A|--------------------------------------------------------------------|
E|--------------------------------------------------------------------|

e|----------------------------------------------------|
B|--------------------------------------2-------------|
G|--2-----2-----2-----2-----2-----2-----------3-------|
D|-----4-----4-----4-----4-----4-----4-----4-----4----|
A|----------------------------------------------------|
E|----------------------------------------------------|

Guitarra 2 (Paul):
e|-------------|
B|--5----------|
G|--------7----|
D|-------------|
A|-------------|
E|-------------|

e|----------------------|  Se repite varias veces.
B|--7-----7-----7-------|
G|-----7-----7-----7----|  (No muy seguro del rasgueo)
D|----------------------|
A|----------------------|
E|----------------------|

e|----------------------| Se repite varias veces.
B|--7-----7-----7-------|
G|-----6-----6-----6----| (No muy seguro del rasgueo)
D|----------------------|
A|----------------------|
E|----------------------|

Coro:

All the while all the protests that shined the same

Guitarra 1 (Daniel):
e|----------------------------------------------------|
B|----------------------------------------------------|
G|--7-----7-----7-----7-----6-----6-----6-----6-------|
D|-----9-----9-----9-----9-----7-----7-----7-----7----|
A|----------------------------------------------------|
E|----------------------------------------------------|

But you will never notice

Guitarra 1 (Daniel):
e|--------------------------------------------------------|
B|--------------------------------------------------------|
G|--9------9------9------9------13------13------13--------|
D|-----11-----11-----11-----11------14------14------14----|
A|--------------------------------------------------------|
E|--------------------------------------------------------|

It's alright

Guitarra 1 (Daniel):
e|-----------------------------------------------------------------------------|
B|--14-------------------------------------------------------------------------|
G|----------11------11------11------11------11------11------11------11---------|
D|------14------12------12------12------12------12------12------12-------12----|
A|-----------------------------------------------------------------------------|
E|-----------------------------------------------------------------------------|

I rely on the process, don't mind the frame

Guitarra 1 (Daniel):
e|----------------------------------------------------|
B|--------------------------------------5-------------|
G|--7-----7-----7-----7-----6-----6-----------6-------|
D|-----9-----9-----9-----9-----7-----7-----7-----7----|
A|----------------------------------------------------|
E|----------------------------------------------------|

They will never take this dream from me

Guitarra 1 (Daniel):
e|------------------------------------------------------------------------------------------------|
B|------------------------------------------------------14----------------------------------------|
G|--9------9------9------9------13------13------13--------------11------11-------11------11-------|
D|-----11-----11-----11-----11------14------14------14------14------12------12------12------12----|
A|------------------------------------------------------------------------------------------------|
E|------------------------------------------------------------------------------------------------|

Parte 4:

It's alright
(Dream from me)
It's alright
(You sent me...)
It's alright
(You sent me...)
It's alright
It's alright
It's alright
(You sent me...)

Guitarra 1 (Daniel):
e|------------------------------------------------------------------------|
B|------------------------------------------------------------------------|
G|------------------------------------------------------------------------|
D|------------------------------------------------------------------------|
A|--9--9-9-9-9-9-9-7--7-7-7-7-7-7-11--11-11-11-11-11-11-9--9-9-9-9-9-9----|
E|------------------------------------------------------------------------|

e|------------------------------------------|
B|------------------------------------------|
G|------------------------------------------|
D|------------------------------------------|
A|--9--9-9-9-9-9-9-12--12-12-12-12-12-12----|
E|------------------------------------------|

e|--------------------------------------------------------------------------------|
B|--------------------------------------------------------------------------------|
G|--------------------------------------------------------------------------------|
D|--------------------------------------------------------------------------------|
A|--12--12-12-12-12-12-12-7--7-7-7-7-7-7-11--11-11-11-11-11-11-9--9-9-9-9-9-9-----|
E|--------------------------------------------------------------------------------|

e|------------------------------------------|
B|------------------------------------------|
G|------------------------------------------|
D|------------------------------------------|
A|--9--9-9-9-9-9-9-12--12-12-12-12-12-12----|
E|------------------------------------------|

e|---------------------------|
B|---------------------------|
G|---------------------------|
D|---------------------------|
A|--12--12-12-12-12-12-12----|
E|---------------------------|

Estas 3 ultimas se repiten hasta que acaba la cancion.
e|---------------------------------------------------------|
B|---------------------------------------------------------|
G|---------------------------------------------------------|
D|---------------------------------------------------------|
A|--7--7-7-7-7-7-7-11--11-11-11-11-11-11-9--9-9-9-9-9-9----|
E|---------------------------------------------------------|

e|------------------------------------------|
B|------------------------------------------|
G|------------------------------------------|
D|------------------------------------------|
A|--9--9-9-9-9-9-9-12--12-12-12-12-12-12----|
E|------------------------------------------|

e|---------------------------|
B|---------------------------|
G|---------------------------|
D|---------------------------|
A|--12--12-12-12-12-12-12----|
E|---------------------------|

La cancion acaba asi:

e|----------------------------|
B|----------------------------|
G|----------------------------|
D|----------------------------|
A|--12--12-12-12-12-12-12\----|
E|----------------------------|

Fin

Guitarra 2 (Paul):

Despues del tercer "It's alright" empieza a tocar, y repite todo hasta el final.

e|-----------------------------|
B|-----------------------------|
G|-----------------------------|
D|--11-11-11-11-11-11-11-11----|
A|-----------------------------|
E|-----------------------------|

e|-----------------|
B|-----------------|
G|-----------------|
D|--14-14-14-14----|
A|-----------------|
E|-----------------|

e|-----------------------------------------------------|
B|-----------------------------------------------------|
G|-----------------------------------------------------|
D|--12-12-12-12-12-12-12-12-12-12-12-12-12-12-12-12----|
A|-----------------------------------------------------|
E|-----------------------------------------------------|

e|-----------------------------------------------------|
B|-----------------------------------------------------|
G|-----------------------------------------------------|
D|--16-16-16-16-16-16-16-16-16-16-16-16-16-16-16-16----|
A|-----------------------------------------------------|
E|-----------------------------------------------------|

La cancion acaba asi:

e|------------------------------------------------------|
B|------------------------------------------------------|
G|------------------------------------------------------|
D|--16-16-16-16-16-16-16-16-16-16-16-16-16-16-16-16\----|
A|------------------------------------------------------|
E|------------------------------------------------------|

Fin

Escuchen muchas versiones de las canciones y comprenderan mas el ritmo.

Saludos

-Letra "Summer Well"

The fevered plastics that seal your body
They won't stop this rain hey, hey
I was your eye in the night when the prophets fell
I said it looks like you summer well

I want to stay magical
I want to stay yearning
(Nobody told you, nobody told you)
I want to feel up on your life
I miss you but it looks like you summered well

All the while all the protests that shined the same
But you will never notice
It's alright
I rely on the process, don't mind the frame
They will never take this dream from me

It's alright
(I'll make it back)
It's alright
(It's all the way behind us)
It's alright

I miss you babe
I want you back
The signs we gave
Weren't those signs supposed to last?

The rainy days
The summer's back
The signs we gave
So what was that?

You know we have ways
To make the seasons touch these ones
So let me take this
Cover your eyes
Look away until it fades

All the while all the protests that shined the same
But you will never notice
It's alright
I rely on the process don't mind the frame
They will never take this dream from me

It's alright
(Dream from me)
It's alright
(You sent me...)
It's alright
(You sent me...)
It's alright
It's alright
It's alright
(You sent me...)

************************************

| /   slide up
| \   slide down
| h   hammer-on
| p   pull-off
| ~   vibrato
| +   harmonic
| x   Mute note
| b   Bend
| pb  Pre-bend
| br  Bend release
| pbr Pre-bend release
| brb Bend release bend

************************************
            
Submit corrections


        Summer Well lessons Hard to play? Try these video lessons and learn fast Summer Well lessons
        
↑ Back to top | Tablatures and chords for acoustic guitar and electric guitar, ukulele, drums are parodies/interpretations of the original songs. You may use it for private study, scholarship, research or language learning purposes only