» » »

Interpol - Summer Well Bass

Artists:  A B C D E F G H I J K L M N O P Q R S T U V W X Y Z # 

Summer Well Bass

(ver. 1) Click to play this song!
Interpol
 Rating:
4/5 (4 votes)

 Summer Well lessons Tabs too difficult? Try these video lessons and learn fast
 
                Summer Well
Band: Interpol
Bassist: Carlos Dengler

Intro/Verse

G|--------------|
D|-----9--------|	x4     *Not played the first time
A|---9*--9------|
D|--------------|

G|--------------|
D|-----7--------|	x8
A|---9---9------|
D|--------------|

G|--------------|
D|-----9--------|	x4
A|---9---9------|
D|--------------|

G|--------------|
D|-----7--------|	x8
A|---9---9------|
D|--------------|

G|--------------|
D|-----9--------|	x4
A|---9---9------|
D|--------------|

G|--------------|
D|-----7--------|	x7
A|---9---9------|
D|--------------|

G|--------------------|
D|-----7-7------------|    x1
A|---9----------------|
D|--------------------|

0:35

G|--------------|
D|-----9--------|	x4
A|---9*--9------|
D|--------------|

G|--------------|
D|-----7--------|	x8
A|---9---9------|
D|--------------|

G|--------------|
D|-----9--------|	x4
A|---9---9------|
D|--------------|

G|--------------|
D|-----7--------|	x6
A|---9---9------|
D|--------------|

G|-------------------|
D|-----7-----7-------|
A|---9---999---00----|
D|-------------------|

Chorus

G|-------------------------------------------|
D|----0------0--------------------2------2---|
A|--2---2--2---2--0-4-0--0-4-0--4---4--4---4-|
D|-------------------------------------------|

G|-------------------------------------------|
D|---6------6------4------4------4-7--4-7----|
A|-7---7--7---7--5---5--5---5--5----5--------|
D|-------------------------------------------|

G|-------------------------------------------|
D|----0------0--------------------2------2---|
A|--2---2--2---2--0-4-0--0-4-0--4---4--4---4-|
D|-------------------------------------------|

G|-------------------------------------------|
D|---6------6------4------4------------------|
A|-7---7--7---7--5---5--5---555--2-----------|
D|-------------------------------------------|


1:41

G|-------7-----7--7-------|
D|-----9-----9------------|
A|---9-----9--------------|
D|------------------------|

G|:----------------------------|
D|:--9------9------9----9------|       Play these two sections x4
A|:----9--9---9--9---99---9----|
D|:----------------------------|

G|----------------------------------------------------------------:
D|-----7------7------7------7-----7------7------7------7----------:
A|---9---9--9---9--9---9--9---999---9--9---9--9---9--9---9-7-9----:
D|----------------------------------------------------------------:

Chorus


G|-------------------------------------------|
D|----0------0--------------------2------2---|
A|--2---2--2---2--0-4-0--0-4-0--4---4--4---4-|
D|-------------------------------------------|

G|-------------------------------------------|
D|---6------6------4------4------4-7--4-7----|
A|-7---7--7---7--5---5--5---5--5----5--------|
D|-------------------------------------------|

G|-------------------------------------------|
D|----0------0--------------------2------2---|
A|--2---2--2---2--0-4-0--0-4-0--4---4--4---4-|
D|-------------------------------------------|

G|-------------------------------------------|
D|---6------6------4------4------------------|
A|-7---7--7---7--5---5--5---555--------------|
D|-------------------------------------------|


Outro


G|-----------------------------------------------------------------|
D|-----------------------------------------------------------------|
A|--2222-2222-0000-0000-4444-4444-7777-7777-5555-5555-5555-5555----|
D|-----------------------------------------------------------------|

You can play this to the end, but he plays some variations involving the 4th, 7th, and 
frets of the D string.

I'll try to update with the variations.
            
Submit corrections


        Summer Well lessons Hard to play? Try these video lessons and learn fast Summer Well lessons
        
↑ Back to top | Tablatures and chords for acoustic guitar and electric guitar, ukulele, drums are parodies/interpretations of the original songs. You may use it for private study, scholarship, research or language learning purposes only