Home » I » Interpol »

Interpol - All The Rage Back Home Tabs

Artists:  A B C D E F G H I J K L M N O P Q R S T U V W X Y Z # 

All The Rage Back Home Tabs

(ver. 1) Click to play this song!
Interpol
 Rating:
4/5 (4 votes)
                Intro (For the slides, it sounds like it starts from the e2 and b2 notes to the next note 
but you can slide from anywhere I guess)
e----12//------12----------12/--/12--12----------10//-------10---------10//--------10----
b-13------//13----13----12--------------12----12-------//12----12---12--------//12----12-
g----------------------------------------------------------------------------------------
d----------------------------------------------------------------------------------------
a----------------------------------------------------------------------------------------
e----------------------------------------------------------------------------------------

Verse
Lead
e----12//------12---------12/--/12--12----------10//-------10---------10//--------10----
b-13------//13----13---12--------------12----12-------//12----12---12--------//12----12-
g---------------------------------------------------------------------------------------
d---------------------------------------------------------------------------------------
a---------------------------------------------------------------------------------------
e---------------------------------------------------------------------------------------

e----12//------12---------12---15----15----17----19//-----10-----15----15----17----19//-----10//------10----
b-13------//13----13---12---------15----15----17-------12----12-----15----15----17-------12------//12----12-
g-----------------------------------------------------------------------------------------------------------
d-----------------------------------------------------------------------------------------------------------
a-----------------------------------------------------------------------------------------------------------
e-----------------------------------------------------------------------------------------------------------


e----12//------12---------12---15----15----17----19//-----10-----15----15----17----19//-----10----1414141414-
b-13------//13----13---12---------15----15----17-------12----12-----15----15----17-------12----12------------
g------------------------------------------------------------------------------------------------------------
d------------------------------------------------------------------------------------------------------------
a------------------------------------------------------------------------------------------------------------
e------------------------------------------------------------------------------------------------------------

Chorus
Lead (Time it.  Kinda hard to hear it.  Got this from their live performance on Letterman.)
e-141414141414-8888888888888888-12121212121212121212121212121212121212-77777777-
b-------------------------------------------------------------------------------
g-------------------------------------------------------------------------------
d-------------------------------------------------------------------------------
a-------------------------------------------------------------------------------
e-------------------------------------------------------------------------------

e-1414141414141414-55555555-1414141414141414141414141414-8888888888888888-121212121212121212121212-
b--------------------------------------------------------------------------------------------------
g--------------------------------------------------------------------------------------------------
d--------------------------------------------------------------------------------------------------
a--------------------------------------------------------------------------------------------------
e--------------------------------------------------------------------------------------------------

e-77777777-1414141414141414-555555555555-1414141414141414-
b---------------------------------------------------------
g---------------------------------------------------------
d---------------------------------------------------------
a---------------------------------------------------------
e---------------------------------------------------------

Post-Chorus
e----12//------12----------12/--/12--12----------10//-------10---------10//--------10----
b-13------//13----13----12--------------12----12-------//12----12---12--------//12----12-
g----------------------------------------------------------------------------------------
d----------------------------------------------------------------------------------------
a----------------------------------------------------------------------------------------
e----------------------------------------------------------------------------------------

            
Submit corrections

↑ Back to top | Tablatures and chords for acoustic guitar and electric guitar, ukulele, drums are parodies/interpretations of the original songs. You may use it for private study, scholarship, research or language learning purposes only