» » »

Interpol - Lights Tabs

Artists:  A B C D E F G H I J K L M N O P Q R S T U V W X Y Z # 

Lights Tabs

(ver. 1) Click to play this song!
Interpol
 Rating:
3.8/5 (5 votes)

 Lights lessons Tabs too difficult? Try these video lessons and learn fast
 
                

Tuning: Standard EADGBe

Riff 1

e------------------|-----------------|-----------------|-----------------|
B------------------|-----------------|-----------------|-----------------|
G------------------|-----------------|-----------------|-----------------|
D------------------|-----------------|-----------------|-----------------|
A------------------|-----------------|-----------------|-----------------|
E--0-0-0-0-3-3-3-3-|-8-8-8-8-8-8-8-8-|-8-8-8-8-8-8-8-8-|-8-8-8-8-8-8-8-8-|

   1   2   3   4     1   2   3   4     1   2   3   4     1   2   3   4

e------------------|-------------------------|-------------------------|
B------------------|-------------------------|-------------------------|
G------------------|-------------------------|-------------------------|
D------------------|-------------------------|-------------------------|
A------------------|-------------------------|-------------------------|
E--8-8-8-8-8-5-5-5-|-10-10-10-10-10-10-10-10-|-10-10-10-10-10-10-10-10-|

   1   2   3   4     1      2     3     4       1     2     3     4

e--------------------------|-------------------------|
B--------------------------|-------------------------|
G--------------------------|-------------------------|
D--------------------------|-------------------------|
A--------------------------|-------------------------|
E--12-12-12-12-12-12-12-12-|-12-12-12-12-12-12-12-12-|

   1      2     3     4       1     2     3     4


Riff 2

e------------------------|------------|----------------|----------------|
B------------------------|------------|----------------|----------------|
G------------------------|------------|----------------|----------------|
D------------------------|------------|----------------|----------------|
A------------------------|------------|----------------|----------------|
E--0-0-0-0-3-3-3-3-8-----|-5----------|-5--5-5-5-5-5-5-|-3--3-3-3-3-3-3-|
  
   1   2   3   4   5  6    1  2  3  4   1  2   3   4     1  2   3   4

e------------------|------------------|------------------|-----------------|
B------------------|------------------|------------------|-----------------|
G------------------|------------------|------------------|-----------------|
D------------------|-7---------7-7-77-|-9----------------|-----------------|
A------------------|-5---------5-5-55-|-7----------------|-----------------|
E--3---3-3-3-3-3-3-|------------------|------------------|-----------------|

   1   2   3   4     1   2   3   4      1   2   3   4      1   2   3   4

This riff is varied later on in the song, where he just plays straight 8th notes

Riff 2 Variation

e--------------------------|-------------------|-----------------|----------------|
B--------------------------|-------------------|-----------------|----------------|
G--------------------------|-------------------|-----------------|----------------|
D--------------------------|-------------------|-----------------|----------------|
A--------------------------|-------------------|-----------------|----------------|
E--0-0-0-0-3-3-3-3-8-8-8-8-|-5-5-5-5-5-5-5-5---|-5-5-5-5-5-5-5-5-|-3-3-3-3-3-3-3--|
   
   1   2   3   4   5   6     1   2   3   4       1   2   3   4     1   2   3   4

e------------------|------------------|------------------|-----------------|
B------------------|------------------|------------------|-----------------|
G------------------|------------------|------------------|-----------------|
D------------------|-7-7-7-7-7-7-7-7--|-9-9-9-9-9-9-9-9--|-9-9-9-9-9-9-9-9-|
A------------------|-5-5-5-5-5-5-5-5--|-7-7-7-7-7-7-7-7--|-7-7-7-7-7-7-7-7-|
E--3-3-3-3-3-3-3-3-|------------------|------------------|-----------------|

   1   2   3   4     1   2   3   4      1   2   3   4      1   2   3   4
            
Submit corrections


        Lights lessons Hard to play? Try these video lessons and learn fast Lights lessons
        
↑ Back to top | Tablatures and chords for acoustic guitar and electric guitar, ukulele, drums are parodies/interpretations of the original songs. You may use it for private study, scholarship, research or language learning purposes only