» » »

Interpol - Roland Bass

Artists:  A B C D E F G H I J K L M N O P Q R S T U V W X Y Z # 

Roland Bass

(ver. 3) Click to play this song!
Interpol
 Rating:
4/5 (4 votes)

 Roland lessons Tabs too difficult? Try these video lessons and learn fast
 
                my first tab but yea i just fixed up the original tab of this song that got 3 stars


Intro x1
G|-------------------------------------------------------------------------------------------|
D|-9-9-9--9--9--9-9-9-10--10-10-10--9-9-9-10--10-10-10--10-10-10-9--9-9-9--10-10-10-9--9-9-9-|
A|-------------------------------------------------------------------------------------------|
D|-------------------------------------------------------------------------------------------|

G|----------------------------------------------------------------------------|
D|-9-9-9-10--10-10-10--9-9-9-10--10-10-10--10-10-10-9--9-9-9-9----------------|
A|----------------------------------------------------------------------------|
D|-------------------------------------------------------------9-9-9-9-9-9-9-9|

Verse
G|--------------------------------------------------------------------------------|
D|--------------------------------------------------------------------------------|
A|------------------------------------------------7-7-7-7-7-7-7-7-7-7-7-7-7-7-7-7-|
D|10-10-10-10-10-10-10-10-10-10-10-10-10-10-10-10---------------------------------|

G|--------------------------------------------------------------------------------|
D|--------------------------------------------------------------------------------|
A|------------------------------------------------7-7-7-7-7-7-7-7-----------------|
D|10-10-10-10-10-10-10-10-10-10-10-10-10-10-10-10-----------------2-2-2-2-2-2-2-2-|

G|--------------------------------------------------------------------------------|
D|--------------------------------------------------------------------------------|
A|------------------------------------------------7-7-7-7-7-7-7-7-7-7-7-7-7-7-7-7-|
D|10-10-10-10-10-10-10-10-10-10-10-10-10-10-10-10---------------------------------|

G|---------------------------------------------------------------------------------------|
D|---------------------------------------------------------------------------------------|
A|----------------------------------------------------------------14-14-14-14-14-14-14-14|
D|10-10-10-10-10-10-10-10-10-10-10-10-10-10-10-10-9-9-9-9-9-9-9-9------------------------|

Chorus x1
G|-----------------------------------------------------------------|
D|-----------------------------------------2-2222----------2-2222--|
A|-----------------------------------------------------------------|
D|-5-5-5-5-5-5-5-5-4-4-4-4-4-4-4-4-2-2-2-2---------2-2-2-2---------|

x1
G|--------------------------------------------------------7-7------|
D|-----------------------------------------2-2222-------------9-9--|
A|-----------------------------------------------------------------|
D|-5-5-5-5-5-5-5-5-4-4-4-4-4-4-4-4-2-2-2-2--------2-2-2-2----------|

x1
G|-----------------------------------------------------------------|
D|-----------------------------------------2-2222---------2-2222---|
A|-----------------------------------------------------------------|
D|-5-5-5-5-5-5-5-5-4-4-4-4-4-4-4-4-2-2-2-2--------2-2-2-2----------|

x1
G|--------------------------------------------------------------------|
D|--------------------------------------------------------------------|
A|--------------------------------------------------------------------|
D|-5-5-5-5-5-5-5-5-4-4-4-4-4-4-4-4-7-7-7-7-7-7-7-7-7-7-7-7-9-9-9-9-10-|

(rest)

Intro x1
G|---------------------------------|
D|-9-9-9-9-9-9-9-9-----------------|
A|---------------------------------|
D|-----------------9-9-9-9-9-9-9-9-|

VERSE x1

Chorus
x1
G|-----------------------------------------------------------------|
D|-----------------------------------------2-2222----------2-2222--|
A|-----------------------------------------------------------------|
D|-5-5-5-5-5-5-5-5-4-4-4-4-4-4-4-4-2-2-2-2---------2-2-2-2---------|

x1
G|--------------------------------------------------------7-7------|
D|-----------------------------------------2-2222-------------9-9--|
A|-----------------------------------------------------------------|
D|-5-5-5-5-5-5-5-5-4-4-4-4-4-4-4-4-2-2-2-2--------2-2-2-2----------|

x1
G|-----------------------------------------------------------------|
D|-----------------------------------------2-2222---------2-2222---|
A|-----------------------------------------------------------------|
D|-5-5-5-5-5-5-5-5-4-4-4-4-4-4-4-4-2-2-2-2--------2-2-2-2----------|

x1
G|--------------------------------------------------------------------|
D|--------------------------------------------------------------------|
A|--------------------------------------------------------------------|
D|-5-5-5-5-5-5-5-5-4-4-4-4-4-4-4-4-7-7-7-7-7-7-7-7-7-7-7-7-9-9-9-9-10-|


x1
G|---------------------------------------------------------------------|
D|---------------------------------------------------------------------|
A|---------------------------------------------------------------------|
D|-5-5-5-5-5-5-5-5-7-7-7-7-7-7-7-7/9-9-9-9-9-9-9-9-9-9-9-9/12-12-12-12-|

Solo

G|12--12--12-12-12-11--11-11-11-11-11-11-11-12-14--14--14-12-11-----------------------11-----|
D|--------------------------------------------------------------14--14-14-14-14-12-12--------|x1
A|-------------------------------------------------------------------------------------------|
D|-------------------------------------------------------------------------------------------|

G|12--12--12-12-12-11--11-11-11-11-11-11-11-12-14--14--14-12-11--------------------------|
D|--------------------------------------------------------------14--14-14-14-14-12-12-12-|x1
A|---------------------------------------------------------------------------------------|
D|---------------------------------------------------------------------------------------|


G|----------------------------------------------------------------------------------------------|
D|12-14-14-14-14-14-14-14-14-12-12-12-12-12-12-12-12-10-10-10-10-10-10-10-10-9-9-9-9-9-10-10-10-|  
A|----------------------------------------------------------------------------------------------|
D|----------------------------------------------------------------------------------------------|
x2



Outro
G|-------------------------------------------------------------------------------------|
D|-------------------------------------------------------------------------------------|x3
A|-------------------------------------------------------------------------------------|
D|-10-10-10-10-10-10-10-10-10-10-10-10-10-10-10-10-2-2-2-2-2-2-2-2-2-2-2-2-2-2/5-5/7-7/|

G|-----------------------------------------------------------------------------------------|
D|-----------------------------------------------------------------------------------------|x1
A|-----------------------------------------------------------------------------------------|
D|-10-10-10-10-10-10-10-10-10-10-10-10-10-10-10-10-2-2-2-2-2-2-2-2-2-2-2-2-2-2/5-5/7-7/10~~|
            
Submit corrections


        Roland lessons Hard to play? Try these video lessons and learn fast Roland lessons
        
↑ Back to top | Tablatures and chords for acoustic guitar and electric guitar, ukulele, drums are parodies/interpretations of the original songs. You may use it for private study, scholarship, research or language learning purposes only