» » »

Interpol - Roland Bass

Artists:  A B C D E F G H I J K L M N O P Q R S T U V W X Y Z # 

Roland Bass

(ver. 1) Click to play this song!
Interpol
 Rating:
4/5 (4 votes)

 Roland  lessons Tabs too difficult? Try these video lessons and learn fast
 
                (1)
Tunning: Dropped D (I'm sure Carlos plays everything Dropped D), but standard is actually easier. :)


Intro A
G |--------------------------------|--------------------------------|
D |--------------------------------|-------------------9-9-9--9--9--|
A |--------------------------------|--------------------------------|
D |--------------------------------|--------------------------------|

Intro B
G |--------------------------------|--------------------------------|
D |-9-9-9-A---A-A-A-9-9-9-A---A-A-A|-A-A-A-9---9-9-9-A-A-A-9---9-9-9| A=10
A |--------------------------------|--------------------------------|
D |--------------------------------|--------------------------------|

Intro C
G |--------------------------------|--------------------------------|
D |-9-9-9-A---A-A-A-9-9-9-A---A-A-A|-A-A-A-9---9-9-9----------------| A=10
A |--------------------------------|--------------------------------|
D |--------------------------------|-----------------2-2-2-2-2-2-2-2|

Verse
G |--------------------------------|--------------------------------|
D |--------------------------------|--------------------------------|
A |-3-3-3-3-3-3-3-3-3-3-3-3-3-3-3-3|\7-7-7-7-7-7-7-7-7-7-7-7-7-7-7-7|
D |--------------------------------|--------------------------------|

G |--------------------------------|--------------------------------|
D |--------------------------------|--------------------------------|
A |-3-3-3-3-3-3-3-3-3-3-3-3-3-3-3-3|\7-7-7-7-7-7-7-7----------------|
D |--------------------------------|-----------------2-2-2-2-2-2-2-2|

G |--------------------------------|--------------------------------|
D |--------------------------------|--------------------------------|
A |-3-3-3-3-3-3-3-3-3-3-3-3-3-3-3-3|\7-7-7-7-7-7-7-7-7-7-7-7-7-7-7-7|
D |--------------------------------|--------------------------------|

G |--------------------------------|--------------------------------|
D |--------------------------------|--------------------------------|
A |-3-3-3-3-3-3-3-3-3-3-3-3-3-3-3-3|-2-2-2-2-2-2-2-2\E-E-E-E-E-E-E-E| E=14
D |--------------------------------|--------------------------------|

Chorus A
G |--------------------------------|--------------------------------|
D |--------------------------------|--------------------------------|
A |--------------------------------|---------77--77----------77--77-|
D |-5-5-5-5-5-5-5-5-4-4-4-4-4-4-4-4|-2-2-2-----------2-2-2----------|

G |--------------------------------|-------------------------9-9-9--|
D |--------------------------------|-------------------------------9|
A |--------------------------------|-------7-7-7-7------------------|
D |-5-5-5-5-5-5-5-5-4-4-4-4-4-4-4-4|-2-2-2-----------2-2-2----------|

G |--------------------------------|--------------------------------|
D |--------------------------------|--------------------------------|
A |--------------------------------|---------77--77----------77--77-|
D |-5-5-5-5-5-5-5-5-4-4-4-4-4-4-4-4|-2-2-2-----------2-2-2----------|

G |--------------------------------|--------------------------------|
D |--------------------------------|--------------------------------|
A |--------------------------------|-0-0-0-0-0-0-0-0-0-0-0-0-2-2-2-2|
D |-5-5-5-5-5-5-5-5-4-4-4-4-4-4-4-4|--------------------------------|

Chorus End
G |--------------------------------|--------------------------------|
D |--------------------------------|--------------------------------|
A |-3------------------------------|--------------------------------|
D |--------------------------------|--------------------------------|

Pre-Verse
G |--------------------------------|
D |---9-9-9-9-9-9-9----------------|
A |-----------------2-2-2-2-2-2-2-2|
D |--------------------------------|

Chorus B
G |--------------------------------|--------------------------------|
D |--------------------------------|--------------------------------|
A |--------------------------------|-2-2-2-2-2-2-2-2-2-2-2-2-5-5-5-5|
D |-5-5-5-5-5-5-5-5-7-7-7-7-7-7-7-7|--------------------------------|

Break
G |---C---C-C-C-B---B---B---B---B-C|---E---E---E-C-B-A-9---9-9-9---B| A=10 B=11 C=12 E=14
D |--------------------------------|--------------------------------|
A |--------------------------------|--------------------------------|
D |--------------------------------|--------------------------------|

G |---C---C-C-C-B---B---B---B---B-C|---E---E---E-C-B-A-9---9-9-9---7|
D |--------------------------------|--------------------------------|
A |--------------------------------|--------------------------------|
D |--------------------------------|--------------------------------|

G |---7---9---9---9-9-9-9-7---7---7|-7-7-7-5---5---5-5-5-5-4---4---4|
D |--------------------------------|--------------------------------|
A |--------------------------------|--------------------------------|
D |--------------------------------|--------------------------------|

G |---7---9---9---9-9-9-9-7---7---7|-7-7-7-5---5---5-5-5-5-4---4---4|
D |--------------------------------|--------------------------------|
A |--------------------------------|--------------------------------|
D |--------------------------------|--------------------------------|

Outro
G |--------------------------------|--------------------------------||
D |--------------------------------|--------------------------------||
A |--------------------------------|--------------------------------||
D |-A-A-A-A-A-A-A-A-A-A-A-A-A-A-A-A|/2-2-2-2-2-2-2-2-2-2-2-2-2-2\5\7|| 3X   A=10

G |--------------------------------|--------------------------------|
D |-----------------------------2--|--------------------------------|
A |-------------------------------3|--------------------------------|
D |-A-A-A-A-A-A-A-A-A-A-A-A-A-A----|-2------------------------------|



[00:10] Intro A,B,B,C
[00:27] Verse
[00:53] Chorus A + End
[01:22] (Rest)
[01:29] Pre-Verse
[01:32] Verse
[01:58] Chorus A + B
[02:31] Break
[02:58] Outro
            
Submit corrections


        Roland  lessons Hard to play? Try these video lessons and learn fast Roland  lessons
        
↑ Back to top | Tablatures and chords for acoustic guitar and electric guitar, ukulele, drums are parodies/interpretations of the original songs. You may use it for private study, scholarship, research or language learning purposes only