» » »

Interpol - Roland Tabs

Artists:  A B C D E F G H I J K L M N O P Q R S T U V W X Y Z # 

Roland Tabs

(ver. 1) Click to play this song!
Interpol
 Rating:
4/5 (4 votes)

 Roland lessons Tabs too difficult? Try these video lessons and learn fast
 
                (thanx to élo)



Intro + Verse

           C/E     Em

Guit1
E||----------------------------------------------|
B||----------------------------------------------|
G||-----------------------------------9--*-------|
D||-----------------------------------9--*-------|
A||----7---7---7---7---7---7---7---7--7--*-------|
E||--8---8---8---8---8---8---8---8----0--*-------|

*(play on bridge at the bottom of guitar)

Guit2 enters
E||------------------------------------------------|
B||------------------------------------------------|
G||------------------------------------------------|
D||------------------------------------------------|
A||------------------------------------------------|
E||-7778---888-777-8---888---888-7-777-888-7-777---|

Guit3?
E||---------------------------------------------------------|
B||---------------------------------------------------------|
G||-(9)(9)(9)(9)(9)(9)(9)(9)(9)(9)----9-9-9-9--10-10-10-10--|
D||--9--10-9--10-9--10-9--10-9--10----9-9-9-9--9--9--9--9---|
A||---------------------------------------------------------|
E||---------------------------------------------------------|




PreChorus

      E/B 

E||-----------|
B||-----------|
G||----9------|
D||----9------|
A||----7------|
E||----7------|




Chorus

      G    F#    Em    Em 

E||--------------------------------------------|
B||--------------------------------------------|
G||--------------------7777----------7777------|
D||---5----4-----2----------999-----------999--|
A||---5----4-----2--------------777------------|
E||---3----2-----0--------------000------------| (3x)


before going back to verse, 

    G     A     B then D

Then 

E||-------------------------------------------------------|
B||-------------------------------------------------------|
G||------------------------------------10-10-10-10-10-10--|
D||--8-9-8-9-9-8-9--8-9-12-12-9-8-9-8--9--9--9--9--9--9---|
A||------------------------------------7--7--7--7--7--7---|
E||-------------------------------------------------------|


Repeat verse


Riff 2'30

   Guit1
E||---------------------------------------------------------|
B||---17-17-17-17-17-19-19-19-19-19-20-20-20-20-19-19-19-19-|
G||---------------------------------------------------------|
D||---------------------------------------------------------|
A||---------------------------------------------------------|
E||---------------------------------------------------------|

E||-------19-19-------20-20--------|
B||-17-17-17-17-17-17-17-17--------|
G||--------------------------------|
D||--------------------------------|
A||--------------------------------|
E||--------------------------------|
 ||

 ||
 ||Guit2
E||------------------------------------------------------7--------7--|
B||----------------------------------------------------7---7---7--7--|
G||-------------9-9----------------------9-9---------9-------9----9--| 
D||---9-9-10-10-----10-10-9-9--9-9-10-10-----10-10-9--------------9--|
A||------------------------------------------------------------------|
E||------------------------------------------------------------------|



End riff

on     C/E    Em




E||--------------------------------------------|
B||--13-13-13-13-13-13-13-13-12-12-12-15-15-15-|
G||--------------------------------------------|
D||--------------------------------------------|
A||--------------------------------------------|
E||--------------------------------------------|

E||-------------------------------------------------|
B||------------------------------------13-12-13-12--|
G||12-12-12-12-12-12-12-12-12-12-11-11--------------|
D||-------------------------------------------------|
A||-------------------------------------------------|
E||-------------------------------------------------|



the end
            
Submit corrections


        Roland lessons Hard to play? Try these video lessons and learn fast Roland lessons
        
↑ Back to top | Tablatures and chords for acoustic guitar and electric guitar, ukulele, drums are parodies/interpretations of the original songs. You may use it for private study, scholarship, research or language learning purposes only