Home » I » Interpol »

Interpol - Pioneer To The Falls Bass

Artists:  A B C D E F G H I J K L M N O P Q R S T U V W X Y Z # 

Pioneer To The Falls Bass

(ver. 2) Click to play this song!
Interpol
Intro (After guitar intro)
G |--------------------------------------------------|
D |--------------------------------------------------|
A |--------------------------------------------------|
D |-555553320000022233333333333335557777777777777223-|

Verse (Before guitar)
G |----------------------------------------------|
D |----------------------------------------------|
A |----------------------------------------------|
D |-555-3---000-2--3223--3223--5--777-77573*4x---|

G |----------------------------------------------|
D |----------------------------------------------|
A |----------------------------------------------|
D |-555-3---000-2--3223--3223--5--777-77573*4---|

Verse x2 (During Guitar)
G |-----------------------------------------------------|
D |--5---5---0----0---3---3---3----3----7---7---7---7---|
A |-----------------------------------------------------|
D |-5--35--30--00---23--23--23--23----57--57--57--57-34-|

After Break
G |--------------------------------------------------|
D |--------------------------------------------------|
A |--------------------------------------------------|
D |-FFFFFFFFFFFFFFFF7777777777777999CCCCCCCCCCCCEEEE-|

G |----------------------------------------------------|
D |----------------------------------------------------|
A |----------------------------------------------------|
D |-FFFFFFFFFFFFFFFF77777777777779999CCCCCCCCCCCCCBBAA-|

G |-------------------------------------------------|
D |-------------------------------------------------|
A |-------------------------------------------------|
D |-99999999999999993333333333333222000000000000333-|

G |-----------------------------------------------------|
D |-----------------------------------------------------|
A |-----------------------------------------------------|
D |-5555555555557777999999999999977755555555555553*4*5*-|

G |-------------------------------------------|
D |-5--5x---0x------3x----3x------7x----------|
A |-------------------------------------------|
D |--35---00--0x-323---323---5x-77---7757334x-|

Outro x4
G |--------------------------------------------------|
D |--------------------------------------------------|
A |--------------------------------------------------|
D |-555555550000000033333333333333337777777777777777-|

A = 10, B = 11, C = 12, E = 14, F = 15, * = let ring, x = stop
            
Submit corrections

↑ Back to top | Tablatures and chords for acoustic guitar and electric guitar, ukulele, drums are parodies/interpretations of the original songs. You may use it for private study, scholarship, research or language learning purposes only