» » »

Interpol - Pioneer To The Falls Tabs

Artists:  A B C D E F G H I J K L M N O P Q R S T U V W X Y Z # 

Pioneer To The Falls Tabs

(ver. 1) Click to play this song!
Interpol
 Rating:
4/5 (4 votes)

 Pioneer To The Falls lessons Tabs too difficult? Try these video lessons and learn fast
 
                
This is my first tab

I'm truly an interpol fan

i saw them live at dallas and i believe the song goes something like this...

Guitar 1 (Daniel Kessler)

e----3---3-----1---1-----1---1----1---1-----0---0-----0---0--| X5
B--3--3-3---3-3-3-3---3-2-2-2--2-2-2-2---2-2-2-2---2-2-2-2-2-|
G------------------------------------------------------------|
D------------------------------------------------------------|
A------------------------------------------------------------|
E------------------------------------------------------------|

Show me the dirt pile
And I will pray that the soul can take
Three stowaways
Vanish with no guile
And I will not pay
But the soul can wait
The soul can wait


e----3---3-----1---1-----1---1----1---1-----0---0-----0---0--| X2
B--3--3-3---3-3-3-3---3-2-2-2--2-2-2-2---2-2-2-2---2-2-2-2-2-|
G------------------------------------------------------------|
D------------------------------------------------------------|
A------------------------------------------------------------|
E------------------------------------------------------------|

It's still pretty
What with all these weeks
We'll be fine
We'll be fine
But if it's still pretty
What with all these weeks
Will we find love
And supervise


e------------------------------------------15--|(let it ring)
B------------------------------------------15--|

e----3---3-----1---1-----1---1----1---1-----0---0-----0---0--| X2
B--3--3-3---3-3-3-3---3-2-2-2--2-2-2-2---2-2-2-2---2-2-2-2-2-|
G------------------------------------------------------------|
D------------------------------------------------------------|
A------------------------------------------------------------|
E------------------------------------------------------------|

Show me the dirt pile
And I will pray that the soul can take
Three stowaways
And you vanish with no guile
And I will not pay
But the soul can wait
I felt you so much today


e--5--5--5--5--5--5--5--5------------|  
B---6--6--6--6--6--6--6--6-----------|
G------------------------------------|
D------------------------------------|
A------------------------------------|
E------------------------------------|

Oh no, you try
You fly straight into my heart

e--5--5--5--5--5--5--5--5------------|  
B---5--5--5--5--5--5--5--5-----------|
G------------------------------------|
D------------------------------------|
A------------------------------------|
E------------------------------------|

You fly straight into my heart

e-10---10---10---10---10---10---10---10----|
B---10---10---10---10---10---10---10---10--|
G------------------------------------------|
D------------------------------------------|
A------------------------------------------|
E------------------------------------------|

Girl, I know you try

e--5--5--5--5--5--5--5--5------------|  
B---6--6--6--6--6--6--6--6-----------|
G------------------------------------|
D------------------------------------|
A------------------------------------|
E------------------------------------|

You fly straight into my heart

e--5--5--5--5--5--5--5--5------------|  
B---5--5--5--5--5--5--5--5-----------|
G------------------------------------|
D------------------------------------|
A------------------------------------|
E------------------------------------|

You fly straight into my heart

e-10---10---10---10---10---10---10---10----|
B---10---10---10---10---12---12---12---12--|
G------------------------------------------|
D------------------------------------------|
A------------------------------------------|
E------------------------------------------|

But here comes the fall 

 1st Guitar

e--5--5--5--5--5--5--5--5------------|  
B---6--6--6--6--6--6--6--6-----------|
G------------------------------------|
D------------------------------------|
A------------------------------------|
E------------------------------------|

 2nd Guitar comes in(Paul Banks)

Picked fast up and down
e-(17)----(15)---(13)(12)------------|  
B------------------------------------|
G------------------------------------|
D------------------------------------|
A------------------------------------|
E------------------------------------|

 1st Guitar

e--5--5--5--5--5--5--5--5------------|  
B---5--5--5--5--5--5--5--5-----------|
G------------------------------------|
D------------------------------------|
A------------------------------------|
E------------------------------------|

 2nd Guitar

Picked fast up and down
e-(17)----(15)---(13)(12)------------|  
B------------------------------------|
G------------------------------------|
D------------------------------------|
A------------------------------------|
E------------------------------------|

 1st Guitar

e-10---10---10---10---10---10---10---10----|
B---10---10---10---10---10---10---10---10--|
G------------------------------------------|
D------------------------------------------|
A------------------------------------------|
E------------------------------------------|

 2nd Guitar

Picked fast up and down
e-(13)---(22)------------------------|  
B------------------------------------|
G------------------------------------|
D------------------------------------|
A------------------------------------|
E------------------------------------|

 1st Guitar

e--5--5--5--5--5--5--5--5------------|  
B---6--6--6--6--6--6--6--6-----------|
G------------------------------------|
D------------------------------------|
A------------------------------------|
E------------------------------------|

 2nd Guitar

Picked fast up and down
e-(17)----(15)---(13)(12)------------|  
B------------------------------------|
G------------------------------------|
D------------------------------------|
A------------------------------------|
E------------------------------------|

 1st Guitar

e--5--5--5--5--5--5--5--5------------|  
B---5--5--5--5--5--5--5--5-----------|
G------------------------------------|
D------------------------------------|
A------------------------------------|
E------------------------------------|

 2nd Guitar

Picked fast up and down
e-(9)------(10)----------------------|
B------------------------------------|
G------------------------------------|
D------------------------------------|
A------------------------------------|
E------------------------------------|

 1st Guitar

e-10---10---10---10---10---10---10---10----|
B---10---10---10---10---12---12---12---12--|
G------------------------------------------|
D------------------------------------------|
A------------------------------------------|
E------------------------------------------|

 2nd Guitar

Picked fast up and down
e-(22)-------------------------------|  
B------------------------------------|
G------------------------------------|
D------------------------------------|
A------------------------------------|
E------------------------------------|


e-10---10---10---10---10---10---10---10----|
B---12---12---12---12---12---12---12---12--|
G------------------------------------------|
D------------------------------------------|
A------------------------------------------|
E------------------------------------------|

So much for me believing that sorrow

e--9----9----9----9----9----9----9----9----|
B---10---10---10---10---10---10---10---10--|
G------------------------------------------|
D------------------------------------------|
A------------------------------------------|
E------------------------------------------|

So much for dreams we see but never care to know

e-10---10---10---10---10---10---10---10----| X4
B---12---12---12---12---12---12---12---12--|
G------------------------------------------|
D------------------------------------------|
A------------------------------------------|
E------------------------------------------|

Your heart makes me feel
Your heart makes me moan
For always and ever, I'll never let go
Always concealed
Safe and inside, oh why?!

e----3---3-----1---1-----1---1----1---1-----0---0-----0---0--|
B--3--3-3---3-3-3-3---3-2-2-2--2-2-2-2---2-2-2-2---2-2-2-2-2-|
G------------------------------------------------------------|
D------------------------------------------------------------|
A------------------------------------------------------------|
E------------------------------------------------------------|

(Only Paul Sings In This Part)

Show me the dirt pile
And I will pray that the soul can take
Three stowaways
In a passion it broke
I pull the black from the grey
But the soul can wait
I felt you so much today...


 1st Guitar

e----3---3-----1---1-----1---1----1---1-----0---0-----0---0--| X4
B--3--3-3---3-3-3-3---3-2-2-2--2-2-2-2---2-2-2-2---2-2-2-2-2-|
G------------------------------------------------------------|
D------------------------------------------------------------|
A------------------------------------------------------------|
E------------------------------------------------------------|

 2nd Guitar

e-----3--------1-------5------5----------------|  x5
B---3--------3-------2------2------------------|
G----------------------------------------------|
D----------------------------------------------|
A----------------------------------------------|
E----------------------------------------------|
            
Submit corrections


        Pioneer To The Falls lessons Hard to play? Try these video lessons and learn fast Pioneer To The Falls lessons
        
↑ Back to top | Tablatures and chords for acoustic guitar and electric guitar, ukulele, drums are parodies/interpretations of the original songs. You may use it for private study, scholarship, research or language learning purposes only