» » »

Interpol - Pioneer To The Falls Tabs

Artists:  A B C D E F G H I J K L M N O P Q R S T U V W X Y Z # 

Pioneer To The Falls Tabs

(ver. 2) Click to play this song!
Interpol
 Rating:
4/5 (4 votes)

 Pioneer To The Falls lessons Tabs too difficult? Try these video lessons and learn fast
 
                
1st tab, 100% correct, by Nelstorr

Intro

Guitar 1 (Daniel

e-----------------------------------------------------------|  x5
B----8---8-----6---6-----6---6----6---6-----5---5-----5---5-|
G--7--7-7---7-7-7-7---7-6-6-6--6-6-6-6---6-6-6-6---6-6-6-6-6|
D-----------------------------------------------------------|
A-----------------------------------------------------------|
E-----------------------------------------------------------|

Show me the dirt pile
And I will pray that the soul can take
Three stowaways

Vanish with no guile
And I will not pay
But the soul can wait
The soul can wait


e-----------------------------------------------------------|  x2
B----8---8-----6---6-----6---6----6---6-----5---5-----5---5-|
G--7--7-7---7-7-7-7---7-6-6-6--6-6-6-6---6-6-6-6---6-6-6-6-6|
D-----------------------------------------------------------|
A-----------------------------------------------------------|
E-----------------------------------------------------------|

(NO GUITARS)
It's still pretty
What with all these weeks
We’ll be fine
We’ll be fine

But if it’s still pretty
What with all these weeks
Will we find love
And supervise


e------------------------------------------15..|
B------------------------------------------15..|

e-----------------------------------------------------------|  x2
B----8---8-----6---6-----6---6----6---6-----5---5-----5---5-|
G--7--7-7---7-7-7-7---7-6-6-6--6-6-6-6---6-6-6-6---6-6-6-6-6|
D-----------------------------------------------------------|
A-----------------------------------------------------------|
E-----------------------------------------------------------|

Show me the dirt pile
And I will pray that the soul can take
Three stowaways

And you vanish with no guile
And I will not pay
But the soul can wait
I felt you so much today


e--------------------------------|  
B10--10--10--10--10--10--10--10--|
G--10--10--10--10--10--10--10--10|
D--------------------------------|
A--------------------------------|
E--------------------------------|

Oh no, you try
You fly straight into my heart

e--------------------------------|  
B10--10---10--10--10--10--10--10-|
G---9---9---9---9---9---9---9---9|
D--------------------------------|
A--------------------------------|
E--------------------------------|

You fly straight into my heart

e--------------------------------|  
B15--15--15--15--15--15--15--15--|
G--14--14--14--14--14--14--14--14|
D--------------------------------|
A--------------------------------|
E--------------------------------|

Girl, I know you try

e--------------------------------|  
B10--10--10--10--10--10--10--10--|
G--10--10--10--10--10--10--10--10|
D--------------------------------|
A--------------------------------|
E--------------------------------|

You fly straight into my heart

e--------------------------------|  
B10--10---10--10--10--10--10--10-|
G---9---9---9---9---9---9---9---9|
D--------------------------------|
A--------------------------------|
E--------------------------------|

You fly straight into my heart

e--------------------------------|  
B15--15--15--15--15--15--15--15--|
G--14--14--14--14--16--16--16--16|
D--------------------------------|
A--------------------------------|
E--------------------------------|

But here comes the fall...

BREACK: 

1st Guitar (Dan)

e--------------------------------|  
B10--10--10--10--10--10--10--10--|
G--10--10--10--10--10--10--10--10|
D--------------------------------|
A--------------------------------|
E--------------------------------|

2nd Guitar (Paul)

e-17!!!!!!!!!!!!!!!!15!!!!!!!13!!| (you get the idea)

1st Guitar (Dan)

e--------------------------------|  
B10--10---10--10--10--10--10--10-|
G---9---9---9---9---9---9---9---9|
D--------------------------------|
A--------------------------------|
E--------------------------------|

2nd Guitar (Paul)

e-12!!!!!!!!!!!!!!!!!!!!!!13!!!!!|

1st Guitar (Dan)

e--------------------------------|  
B15--15--15--15--15--15--15--15--|
G--14--14--14--14--14--14--14--14|
D--------------------------------|
A--------------------------------|
E--------------------------------|

2nd Guitar (Paul)

e-23!!!!!!!!!!!!!!!!!!!!!!!!!!!!!|

1st Guitar (Dan)

e--------------------------------|  
B10--10--10--10--10--10--10--10--|
G--10--10--10--10--10--10--10--10|
D--------------------------------|
A--------------------------------|
E--------------------------------|

2nd Guitar (Paul)

e-17!!!!!!!!!!!!!!!!15!!!!!!!13!!| (you get the idea)

1st Guitar (Dan)

e--------------------------------|  
B10--10---10--10--10--10--10--10-|
G---9---9---9---9---9---9---9---9|
D--------------------------------|
A--------------------------------|
E--------------------------------|

2nd Guitar (Paul)

e-12!!!!!!!!!!!!!!9!!!!!!!!10!!!!|

1st Guitar (Dan)

e--------------------------------|  
B15--15--15--15--15--15--15--15--|
G--14--14--14--14--16--16--16--16|
D--------------------------------|
A--------------------------------|
E--------------------------------|

2nd Guitar (Paul)

e-23!!!!!!!!!!!!!!!!!!!!!!!!!!!!!|

END BREACK:

e--------------------------------|  
B15--15--15--15--15--15--15--15--|
G--16--16--16--16--16--16--16--16|
D--------------------------------|
A--------------------------------|
E--------------------------------|

So much for me believing that sorrow

e--------------------------------|  
B14--14--14--14--14--14--14--14--|
G--14--14--14--14--14--14--14--14|
D--------------------------------|
A--------------------------------|
E--------------------------------|

So much for dreams we see but never care to know

e--------------------------------|  x4
B15--15--15--15--15--15--15--15--|
G--16--16--16--16--16--16--16--16|
D--------------------------------|
A--------------------------------|
E--------------------------------|

Your heart makes me feel
Your heart makes me moan
For always and ever, I'll never let go
Always concealed
Safe and inside, oh why?!

e-----------------------------------------------------------|  
B----8---8-----6---6-----6---6----6---6-----5---5-----5---5-|
G--7--7-7---7-7-7-7---7-6-6-6--6-6-6-6---6-6-6-6---6-6-6-6-6|
D-----------------------------------------------------------|
A-----------------------------------------------------------|
E-----------------------------------------------------------|

(No guitar)

Show me the dirt pile
And I will pray that the soul can take
Three stowaways
In a passion it broke
I pull the black from the grey
But the soul can wait
I felt you so much today...


1st Guitar (Dan)
e-----------------------------------------------------------|  x4
B----8---8-----6---6-----6---6----6---6-----5---5-----5---5-|
G--7--7-7---7-7-7-7---7-6-6-6--6-6-6-6---6-6-6-6---6-6-6-6-6|
D-----------------------------------------------------------|
A-----------------------------------------------------------|
E-----------------------------------------------------------|

2nd Guitar (Paul

e------------------5^-----------5^-------------|  x5
B---8^-----6^----------------------------------|
G--7^-----7^----6^----------6^-----------------|
D----------------------------------------------|
A----------------------------------------------|
E----------------------------------------------|
            
Submit corrections


        Pioneer To The Falls lessons Hard to play? Try these video lessons and learn fast Pioneer To The Falls lessons
        
↑ Back to top | Tablatures and chords for acoustic guitar and electric guitar, ukulele, drums are parodies/interpretations of the original songs. You may use it for private study, scholarship, research or language learning purposes only