» » »

Interpol - Barricade Tabs

Artists:  A B C D E F G H I J K L M N O P Q R S T U V W X Y Z # 

Barricade Tabs

(ver. 2) Click to play this song!
Interpol
 Rating:
4.3/5 (6 votes)

 Barricade lessons Tabs too difficult? Try these video lessons and learn fast
 
                BARRICADE

daniel:
|----------------------------------------------|
|----------------------------------------------|
|----------------------------------------------|
|----12----------12----------12----------12----|
|-14----14----14----14----14----14----14----14-|
|----------------------------------------------|

paul:
|--------------------------------------------|
|--------------------------------------------|
|--16-16-16----------------------------------|
|-----------etc.-----------------------------|
|--14-14-14----------------------------------|
|--------------------------------------------|


VERSE:

daniel:
|----------------------------------------------------|--------------|
|----------------------------------------------------|----few times-|
|----------------------------------------------------|--------------|
|----9------7-----5-------------12----12----12----12-|----12--------|
|-10---10-9---9-7---7-7-5-7--14----14----14----14----|-14----14-14--|
|----------------------------------------------------|--------------|

paul:                                             1st time/3rd time
|------------------------------------------------|-------------------|
|------------------------------------------------|-------------------|
|-16-16-16-16-16-16-16-16-14-14-14-14-14-12-12-12|-14-14-11/12-14/16-|
|------------------------------------------------|-------------------|
|-14-14-14-14-14-14-14-14-12-12-12-12-12-10-10-10|-12-12--9/10-12/14-|
|------------------------------------------------|-------------------|

2nd time
|--------------------------------------------|
|--------------------------------------------|
|--16-16-1111-16-16-12-12-14-14--------------|
|--------------------------------------------|
|--14-14--9-9-14-14-10-10-12-12--------------|
|--------------------------------------------|

4th time
|--------------------------------------------|
|--------------------------------------------|
|--55-7-999-55-7-999-------------------------|
|--------------------------------------------|
|--33-5-777-33-5-777-------------------------|
|--------------------------------------------|

I did not take to an*lysis 
So I had to make up my mind and hold it for a while
I would not just leave you without a kiss
But I guess there must come a time, when there's no more tears to cry
Thieves and snakes need homes, need homes
Barricade


CHORUS:

paul:
|----------------------------------------------------|
|----------------------------------------------------|
|-9-9-9-9-9-9-9 etc.-9-11-9--12---------9-11-9-12-11-|
|-------------------------------etc-end--------------|
|--------------------7--9-7--10---------7--9-7-10--9-|
|----------------------------------------------------|

daniel:
|--------------------------------------------------------|
|--------------5-----------------------------------------|
|-9------7-------5-4-5----12-------12-------12-------5---|
|---10-9---9-7---------7-----14-14----14-14----14-14---7-|
|--------------------------------------------------------|
|--------------------------------------------------------|

It starts to feel like a barricade 
To keep us away, to keep us away
It kind of does 
It starts to feel like a barricade 
To keep us away, keep us away

VERSE
CHORUS

BRIDGE

daniel:
|--------------------------------------------|
|--------------------------------------------|
|--9-7-11-5-12-12-12-12----------------------|
|-10-9-12-7-14-14-14-14----------------------|
|--------------------------------------------|
|--------------------------------------------|

paul:
|------------------------------------------------------------------------|
|------------------------------------------------------------------------|
|--1212121211111111-14141414-9-9-9-9-19191919-16161616-14141414-16161616-|
|------------------------------------------------------------------------|
|--10101010-9-9-9-9-12121212-7-7-7-7-17171717-14141414-12121212-14141414-|
|------------------------------------------------------------------------|

|--------------------------------------------|
|--------------------------------------------|
|--12//-11/-14/-12/-12-11-9-11/-12/----------|
|--------------------------------------------|
|--------------------------------------------| 2x
|--------------------------------------------|
VERSE RIFF
CHORUS
            
Submit corrections


        Barricade lessons Hard to play? Try these video lessons and learn fast Barricade lessons
        
↑ Back to top | Tablatures and chords for acoustic guitar and electric guitar, ukulele, drums are parodies/interpretations of the original songs. You may use it for private study, scholarship, research or language learning purposes only