» » »

Interpol - Barricade Tabs

Artists:  A B C D E F G H I J K L M N O P Q R S T U V W X Y Z # 

Barricade Tabs

(ver. 1) Click to play this song!
Interpol
 Rating:
4.3/5 (6 votes)

 Barricade lessons Tabs too difficult? Try these video lessons and learn fast
 
                Sorry only main riff :

Do this few times
Intro :
e|-------------|
B|-------------|
G|-------------|
D|-------12----|
A|-14-14----14-|
E|-------------|

Then Daniel's riff :
e|-------------------------------------------------------------|
B|-------------------------------------------------------------|
G|-------------------------------------------------------------|
D|----12------12-----12----10------7-----5---------------------|
A|--14------14-----14----12--12--9--9--7--7--7-5-7-------------|
E|-------------------------------------------------------------|


After second chorus when Paul does a tremolo picking solo ( or so he does on letterman) 
a little change in the riff :

e|-------------------------------------------------------------|
B|-------------------------------------------------------------|
G|-------------------------------------------------------------|
D|---7----5------------12------10------9-----7----5------------|
A|--9-9--7-7--7-5-7--14--14--12--12--10-10--9-9--7-7--7-5-7----|
E|-------------------------------------------------------------|
                            Do the 10-12 part few times

I'm afraid i've done only this part ( all Daniel's)

Please complete even though we have plenty ( Jul...ian ....) of time before realease.

First tab, be kind
Georgesmonyeti
            
Submit corrections


        Barricade lessons Hard to play? Try these video lessons and learn fast Barricade lessons
        
↑ Back to top | Tablatures and chords for acoustic guitar and electric guitar, ukulele, drums are parodies/interpretations of the original songs. You may use it for private study, scholarship, research or language learning purposes only