Home » I » Interpol »

Interpol - Barricade Bass

Artists:  A B C D E F G H I J K L M N O P Q R S T U V W X Y Z # 

Barricade Bass

(ver. 1) Click to play this song!
Interpol
 Rating:
4/5 (5 votes)
                -----------------------------------------------------------------
-----------------------------------------------------------------
Yet another excellent song from Interpol,catchiest bass line to come out of their new 
for sure…I tabbed this out by ear, if you find any mistakes feel free to correct, enjoy!
Tuning: Drop D
    Intro
G|---------------------------------------------------------------|
D|-12-12--------------------------12-12-12-12-12-12-12-12\-------| 4x
A|--------10-10-10-10-10-10-10-10--------------------------------|
D|---------------------------------------------------------------|

  "Did not take to an*lysis…"
G|---------------------------------------------------------------|
D|--------9-9----9-9---------------------------------------------|
A|-5-7-5-------------7-7-----------------------------------------|
D|---------------------------------------------------------------|

  "and hold it for a while"
G|---------------------------------------------------------------|
D|-12-12--------------------------12-12-12-12-12-12-12-12\-------|
A|--------10-10-10-10-10-10-10-10--------------------------------|
D|---------------------------------------------------------------|

  "I would not just leave you…"
G|---------------------------------------------------------------|
D|-------------9----9--------------------------------------------|
A|-7-7-5-5-7-7---77---7------------------------------------------|
D|---------------------------------------------------------------|

  "But I guess there must come a time"
G|---------------------------------------------------------------|
D|--------9-9----9-9---------------------------------------------|
A|-5-7-5---------------7-----------------------------------------|
D|---------------------------------------------------------------|

  "When there's no more tears to cry"
G|---------------------------------------------------------------|
D|-12-12--------------------------12-12-12-12-12-12-12-12\-------|
A|--------10-10-10-10-10-10-10-10--------------------------------|
D|---------------------------------------------------------------|

  "Thieves and snakes need homes…"
G|---------------------------------------------------------------|
D|-------------------------7/9---7/9-----------------------------|
A|-7-7-7-7-7-77-7----5-7-5------------7--------------------------|
D|---------------------------------------------------------------|

 "Starts to feel like a barricade…"
G|---------------------------------------------------------------|
D|---------------------------------------------------------------| 2x
A|------------------------7-7-77---77----------------------------|
D|-5-5-55-5/7-7-7-77--5h7--------------7-7-77--------------------|
  Repeat all the riffs in order above until the chorus

  "Full speed, half blind"
G|---------------------------------------------------------------|
D|-2---------0--------4------------0-----------------------------|
A|---3-3-3-----2-2-2----5-5-5----2---2-2-2-----------------------|
D|---------------------------------------------------------------|

  "Full tilt, decline"
G|---------------------------------------------------------------|
D|-5--------5--------5--------5----0-2---------------------------|
A|---7-7-7----7-7-7----7-7-7-----2-------------------------------|
D|---------------------------------------------------------------|

  "Turn to past times"
G|---------------------------------------------------------------|
D|-2---------0--------4------------0-----------------------------|
A|---3-3-3-----2-2-2----5-5-5----2---2-2-2-----------------------|
D|---------------------------------------------------------------|

 "Full speed, half blind"
G|---------------------------------------------------------------|
D|-5--------5--------5--------5----0-2---------------------------|
A|---7-7-7----7-7-7----7-7-7-----2-------------------------------|
D|---------------------------------------------------------------|


  "You know us……you know us"
G|---------------------------------------------------------------|
D|----------14-14-------14-14---16-16-------16-16--17-17---------|
A|-12-14-12-------12-12---------------14-14--------------15-15---|
D|---------------------------------------------------------------|

That's pretty much it, it’s a simple but great song, practice with the song to get the 
down, good luck

| /  slide up
| \  slide down
| h  hammer-on
| p  pull-off
| ~  vibrato
| +  harmonic
| x  Mute note
            
Submit corrections

↑ Back to top | Tablatures and chords for acoustic guitar and electric guitar, ukulele, drums are parodies/interpretations of the original songs. You may use it for private study, scholarship, research or language learning purposes only