Home » H » Hozier »

Hozier - To Be Alone Tabs

Artists:  A B C D E F G H I J K L M N O P Q R S T U V W X Y Z # 

To Be Alone Tabs

(ver. 2) Click to play this song!
Hozier

[Intro]
 || RIFF A
e|------------------------|----0-----3-0---|----------------|----------------|
B|------------------------|--3-------------|--3-0-----2-----|-------------3--|
G|------------------------|----------------|----------------|---------2/4----|
D|------------------------|----------------|----------------|----------0-----|
A|------------------------|----------------|----------------|----------------|
E|----------0---0---0---0-|--0---0---0---0-|--0---0---0---0-|--0---0---0---0-|

e|----------------|------------------------|
B|----------------|------------------------|
G|--2-------------|-4/2------0-2-----0-----|
D|----------------|--0---2-------------2---|x2
A|----------------|------------------------|
E|--0---0---0---0-|--0---0---0---0---0---0-|

  RIFF B (play 2nd time around of intro)
e|-----------------|----------------|----------------|---------------|
B|-----------------|----------------|----------------|---------------|
G|---0-2-----0-----|--0-2--0h2h0h2h0|----------------|---------------|
D|-------------2---|----------------|-0h2h0h2h0h2h0h2|---------------|
A|-----------------|----------------|----------------|---------------|
E|---0---0---0---0-|--0---0---0---0-|--0---0---0---0-|--0---0---0--0-|

[Verse]
Never feel too good in crowds,
With folks around
When they're playing

The anthems of rape culture loud,
Crude and proud
Creatures baying

All I've ever done is hide
From our times
When you're near me

Honey, when you kill the lights
And kiss my eyes
I feel like a person for a moment of my life

e|-----0-----3-0---|----------------|----------------|----------------|------------------------|
B|---3-------------|--3-0-----2-----|-------------3--|----------------|------------------------|
G|-----------------|----------------|---------2/4----|--2-------------|-4/2------0-2-----0-----|
D|-----------------|----------------|----------0-----|----------------|--0---2-------------2---|
A|-----------------|----------------|----------------|----------------|------------------------|
E|---0---0---0---0-|--0---0---0---0-|--0---0---0---0-|--0---0---0---0-|--0---0---0---0---0---0-|
     never feel to good in crowds,     with folks around                       when they're playing

e|-----0-----3-0---|----------------|----------------|----------------|------------------------|
B|---3-------------|--3-0-----2-----|-------------3--|----------------|------------------------|
G|-----------------|----------------|---------2/4----|--2-------------|-4/2------0-2-----0-----|
D|-----------------|----------------|----------0-----|----------------|--0---2-------------2---|
A|-----------------|----------------|----------------|----------------|------------------------|
E|---0---0---0---0-|--0---0---0---0-|--0---0---0---0-|--0---0---0---0-|--0---0---0---0---0---0-|
  the anthums of rape culture loud,         crude and proud                     creatures baying

e|-----0-----3-0---|----------------|----------------|----------------|------------------------|
B|---3-------------|--3-0-----2-----|-------------3--|----------------|------------------------|
G|-----------------|----------------|---------2/4----|--2-------------|-4/2------0-2-----0-----|
D|-----------------|----------------|----------0-----|----------------|--0---2-------------2---|
A|-----------------|----------------|----------------|----------------|------------------------|
E|---0---0---0---0-|--0---0---0---0-|--0---0---0---0-|--0---0---0---0-|--0---0---0---0---0---0-|
    All I've ever done is hide,              from our times                      when you're near me

e|-----0-----3-0---|----------------|----------------|----------------|------------------------|
B|---3-------------|--3-0-----2-----|-------------3--|----------------|------------------------|
G|-----------------|----------------|---------2/4----|--2-------------|-4/2------0-2-----0-----|
D|-----------------|----------------|----------0-----|----------------|--0---2-------------2---|
A|-----------------|----------------|----------------|----------------|------------------------|
E|---0---0---0---0-|--0---0---0---0-|--0---0---0---0-|--0---0---0---0-|--0---0---0---0---0---0-|
     Honey when you kill the lights,      and kiss my eyes                      I feel like a

e|-----------------|----------------|----------------|---------------|
B|-----------------|----------------|----------------|---------------|
G|---0-2-----0-----|--0-2--0h2h0h2h0|----------------|---------------|
D|-------------2---|----------------|-0h2h0h2h0h2h0h2|---------------|
A|-----------------|----------------|----------------|---------------|
E|---0---0---0---0-|--0---0---0---0-|--0---0---0---0-|--0---0---0--0-|
    person for a moment of my life

[Pre Chorus]
But you don't know what hell you put me through
To have someone kiss the skin that crawls from you
To feel your weight in arms I'd never use
It's the god that heroin prays to

e|---------------------------------------------------------------------------|
B|---------------------------------------------------------------------------|
G|---------------------------------------------------------------------------|
D|---5-----4-----2-----0-----2-----4-----2-----2-----2-----2-----2-----2-----|
A|---------------------------------------2-----------2-----------2-----------|
E|---0---0---0---0---0---0---0---0---0---0---0---0---0---0---0---0---0---0---|
 But you  don't  know  what  hell you   put    me    through            To have

e|---------------------------------------------------------------------------|
B|---------------------------------------------------------------------------|
G|---------------------------------------------0-----------0-----------0-----|
D|---5-----4-----2-----0-----2-----4-----4-----------4-----------4-----------|
A|---------------------------------------2-----------2-----------2-----------|
E|---0---0---0---0---0---0---0---0---0---0---0---0---0---0---0---0---0---0---|
   someone     kiss   the  skin   that crawls         from you 

e|---------------------------------------------------------------------------|
B|---------------------------------------------------------------------------|
G|---------------------------------------------0-----------0-----------0-----|
D|---5-----4-----2-----0-----2-----4-----4-----------4-----------4-----------|
A|---------------------------------------2-----------2-----------2-----------|
E|---0---0---0---0---0---0---0---0---0---0---0---0---0---0---0---0---0---0---|
 To feel  your weight  in   arms  I'd       never  use 
                                                                             DU
e|---------------------------------------------------------------------------x-|
B|---------------------------------------------------------------------------x-|
G|---------------------------------------------------------------------------x-|
D|---5-----4-----2-----0-----2-----4-----2-----2-----2-----2-----2-----2-----5-|
A|---------------------------------------2-----------2-----------2-----------5-|
E|---0---0---0---0---0---0---0---0---0---0---0---0---0---0---0---0---0---0---3-|
    Its   the  god    that  heroin         prays   to

[Chorus]
It feels good, girl, it feels good
It feels good, girl, it feels good
It feels good, girl, it feels good
Oh to be alone with you

Strum the 3,5,5 chords and palm mute the Em
     D  D  D  D  D  D  D  DU
e|---x--x--x--x--x--x--x--x--------|
B|---x--x--x--x--x--x--x--x--------|
G|---x--x--x--x--x--x--x--x--------| x3
D|---2--2--2--2--2--2--2--5--------|
A|---2--2--2--2--2--2--2--5--------|
E|---0--0--0--0--0--0--0--3--------|
It feels good, girl, it feels good
    D
e|--x-------------------------------------------------------------------------|
B|--x-------------------------------------------------------------------------|
G|--x-------------------------------------------------------------------------|
D|--2-------------------------------------------------------------------------|
A|--2-------------------------------------------------------------------------|
E|--0-------------------------------------------------------------------------|
    Oh to be alone with you 

[INTERLUDE]
e|-----0-----3-0---|----------------|----------------|
B|---3-------------|--3-0-----2-----|-------------3--|
G|-----------------|----------------|---------2/4----|
D|-----------------|----------------|----------0-----|
A|-----------------|----------------|----------------|
E|---0---0---0---0-|--0---0---0---0-|--0---0---0---0-|

e|----------------|------------------------|
B|----------------|------------------------|
G|--2-------------|-4/2------0-2-----0-----|
D|----------------|--0---2-------------2---|x2
A|----------------|------------------------|
E|--0---0---0---0-|--0---0---0---0---0---0-|

e|-----------------|----------------|----------------|---------------|
B|-----------------|----------------|----------------|---------------|
G|---0-2-----0-----|--0-2--0h2h0h2h0|----------------|---------------|
D|-------------2---|----------------|-0h2h0h2h0h2h0h2|---------------|
A|-----------------|----------------|----------------|---------------|
E|---0---0---0---0-|--0---0---0---0-|--0---0---0---0-|--0---0---0--0-|

[solo bit] - this is as close as I can get to his version
e|-3----0-------------------------------------0--------------------------------------------|
B|--------3---0-2---------------3-3-3-3-3-3-3----------------------------------------------|
G|------------------------------2-2-2-2-2-2-2--2/3-3-----2p0-------------------------------|
D|-----------------------------------------------------------2---0h2h0h2h0h2h0h2h0h2h0-----|
A|-----------------------------------------------------------------------------------------|
E|--0---0---0---0---0---0---0---0---0---0---0---0----0---0---0---0---0---0---0---0---0---0-|

[Verse 2]
There are questions I can't ask
Now at last
The worst is over

See the way you hold yourself
Reel against
Your body's borders

I know that you hate this place
Not a trace
Of me would argue

Honey, we should run away
Oh someday
Our baby and her momma
And the damaged love she make

e|-----0-----3-0---|----------------|----------------|----------------|------------------------|
B|---3-------------|--3-0-----2-----|-------------3--|----------------|------------------------|
G|-----------------|----------------|---------2/4----|--2-------------|-4/2------0-2-----0-----|
D|-----------------|----------------|----------0-----|----------------|--0---2-------------2---|
A|-----------------|----------------|----------------|----------------|------------------------|
E|---0---0---0---0-|--0---0---0---0-|--0---0---0---0-|--0---0---0---0-|--0---0---0---0---0---0-|
   There are questions I can't ask           Now at last                    the worst is over

e|-----0-----3-0---|----------------|----------------|----------------|------------------------|
B|---3-------------|--3-0-----2-----|-------------3--|----------------|------------------------|
G|-----------------|----------------|---------2/4----|--2-------------|-4/2------0-2-----0-----|
D|-----------------|----------------|----------0-----|----------------|--0---2-------------2---|
A|-----------------|----------------|----------------|----------------|------------------------|
E|---0---0---0---0-|--0---0---0---0-|--0---0---0---0-|--0---0---0---0-|--0---0---0---0---0---0-|
   See the way you hold yourself              real against                  your body's borders
  
e|-----0-----3-0---|----------------|----------------|----------------|------------------------|
B|---3-------------|--3-0-----2-----|-------------3--|----------------|------------------------|
G|-----------------|----------------|---------2/4----|--2-------------|-4/2------0-2-----0-----|
D|-----------------|----------------|----------0-----|----------------|--0---2-------------2---|
A|-----------------|----------------|----------------|----------------|------------------------|
E|---0---0---0---0-|--0---0---0---0-|--0---0---0---0-|--0---0---0---0-|--0---0---0---0---0---0-|
    I know that you hate this place            not a trace                  of me would argue

e|-----0-----3-0---|----------------|----------------|----------------|------------------------|
B|---3-------------|--3-0-----2-----|-------------3--|----------------|------------------------|
G|-----------------|----------------|---------2/4----|--2-------------|-4/2------0-2-----0-----|
D|-----------------|----------------|----------0-----|----------------|--0---2-------------2---|
A|-----------------|----------------|----------------|----------------|------------------------|
E|---0---0---0---0-|--0---0---0---0-|--0---0---0---0-|--0---0---0---0-|--0---0---0---0---0---0-|
    Honey, we should run away                  oh someday                  our baby    and her

e|-----------------|----------------|----------------|---------------|
B|-----------------|----------------|----------------|---------------|
G|---0-2-----0-----|--0-2--0h2h0h2h0|----------------|---------------|
D|-------------2---|----------------|-0h2h0h2h0h2h0h2|---------------|
A|-----------------|----------------|----------------|---------------|
E|---0---0---0---0-|--0---0---0---0-|--0---0---0---0-|--0---0---0--0-|
    mama   and the damaged love she make

[Pre-chorus]
But I don't know what else that I would give
Than try to kiss the skin that crawls from you
Then feel your weight in arms I'd never use
It's the god that heroin prays to

e|---------------------------------------------------------------------------|
B|---------------------------------------------------------------------------|
G|---------------------------------------------------------------------------|
D|---5-----4-----2-----0-----2-----4-----2-----2-----2-----2-----2-----2-----|
A|---------------------------------------2-----------2-----------2-----------|
E|---0---0---0---0---0---0---0---0---0---0---0---0---0---0---0---0---0---0---|
 But I   don't  know  what  else that   I     would do    

e|---------------------------------------------------------------------------|
B|---------------------------------------------------------------------------|
G|---------------------------------------------0-----------0-----------0-----|
D|---5-----4-----2-----0-----2-----4-----4-----------4-----------4-----------|
A|---------------------------------------2-----------2-----------2-----------|
E|---0---0---0---0---0---0---0---0---0---0---0---0---0---0---0---0---0---0---|
than try to     kiss   the  skin   that crawls         from you 

e|---------------------------------------------------------------------------|
B|---------------------------------------------------------------------------|
G|---------------------------------------------0-----------0-----------0-----|
D|---5-----4-----2-----0-----2-----4-----4-----------4-----------4-----------|
A|---------------------------------------2-----------2-----------2-----------|
E|---0---0---0---0---0---0---0---0---0---0---0---0---0---0---0---0---0---0---|
 To feel  your weight  in   arms  I'd       never  use 
                                                                            DU
e|---------------------------------------------------------------------------x-|
B|---------------------------------------------------------------------------x-|
G|---------------------------------------------------------------------------x-|
D|---5-----4-----2-----0-----2-----4-----2-----2-----2-----2-----2-----2-----5-|
A|---------------------------------------2-----------2-----------2-----------5-|
E|---0---0---0---0---0---0---0---0---0---0---0---0---0---0---0---0---0---0---3-|
    Its   the  god    that  heroin         prays   to

[Chorus]
It feels good, girl, it feels good
It feels good, girl, it feels good
It feels good, girl, it feels good
Oh to be alone with you

Strum the 3,5,5 chords and palm mute the Em
     D  D  D  D  D  D  D  DU
e|---x--x--x--x--x--x--x--x--------|
B|---x--x--x--x--x--x--x--x--------|
G|---x--x--x--x--x--x--x--x--------| x3
D|---2--2--2--2--2--2--2--5--------|
A|---2--2--2--2--2--2--2--5--------|
E|---0--0--0--0--0--0--0--3--------|
It feels good, girl, it feels good

    D
e|--x-------------------------------------------------------------------------|
B|--x-------------------------------------------------------------------------|
G|--x-------------------------------------------------------------------------|
D|--2-------------------------------------------------------------------------|
A|--2-------------------------------------------------------------------------|
E|--0-------------------------------------------------------------------------|
    Oh to be alone with you 

e|-----0-----3-0---|----------------|----------------|
B|---3-------------|--3-0-----2-----|-------------3--|
G|-----------------|----------------|---------2/4----|
D|-----------------|----------------|----------0-----|
A|-----------------|----------------|----------------|
E|---0---0---0---0-|--0---0---0---0-|--0---0---0---0-|

e|----------------|------------------------|
B|----------------|------------------------|
G|--2-------------|-4/2------0-2-----0-----|
D|----------------|--0---2-------------2---|x2
A|----------------|------------------------|
E|--0---0---0---0-|--0---0---0---0---0---0-|

e|-----------------|----------------|----------------|---------------|
B|-----------------|----------------|----------------|---------------|
G|---0-2-----0-----|--0-2--0h2h0h2h0|----------------|---------------|
D|-------------2---|----------------|-0h2h0h2h0h2h0h2|---------------|
A|-----------------|----------------|----------------|---------------|
E|---0---0---0---0-|--0---0---0---0-|--0---0---0---0-|--0---0---0--0-|

     D  D  D  D  D  D  D  DU
e|---x--x--x--x--x--x--x--x--------|
B|---x--x--x--x--x--x--x--x--------|
G|---x--x--x--x--x--x--x--x--------| x3
D|---2--2--2--2--2--2--2--5--------|
A|---2--2--2--2--2--2--2--5--------|
E|---0--0--0--0--0--0--0--3--------|
It feels good, girl, it feels good

    D
e|--x-------------------------------------------------------------------------|
B|--x-------------------------------------------------------------------------|
G|--x-------------------------------------------------------------------------|
D|--2-------------------------------------------------------------------------|
A|--2-------------------------------------------------------------------------|
E|--0-------------------------------------------------------------------------|
    Oh to be alone with you 

It feels good, girl, it feels good
It feels good, girl, it feels good
It feels good, girl, it feels good
Oh to be alone with you
It feels good, girl, it feels good
It feels good, girl, it feels good
It feels good, girl, it feels good
Oh to be alone with you
            
Submit corrections

↑ Back to top | Tablatures and chords for acoustic guitar and electric guitar, ukulele, drums are parodies/interpretations of the original songs. You may use it for private study, scholarship, research or language learning purposes only