» » »

Hozier - Shrike Tabs

Artists:  A B C D E F G H I J K L M N O P Q R S T U V W X Y Z # 

Shrike Tabs

(ver. 1) Click to play this song!
Hozier
 Rating:
4.3/5 (19 votes)

 Shrike lessons Tabs too difficult? Try these video lessons and learn fast
 
                [Intro]

e|3----5h8-5h8p5-5p3-----------------|------0-------0--------0-------0|
C|--------------------2/4---2p0-2/4-2|2---2---2---2----2---2----2--2--|
G|-----------------------------------|--------------------------------|
C|-----------------------------------|--------------------------------|
G|-----------------------------------|--------------------------------|
C|0--0-----0-----0----0---0-----0----|2-2-----2-2------2-2------2-----|

e|----0h3-0h3p0----------------|------------------------------------|
C|2-------------2p0-5p4-2p0----|--------0------------0-----------0--|
G|--------------------------2p0|------------------------------------|
C|-----------------------------|--0h2h4---4--4/7-2-2---2p0----------|
G|-----------------------------|---------------------------2p0------|
C|2-2-----2-----2p0------------|0------------0---0-------------0---0|

e|3----5h8-5h8p5-5p3-----------------|------0-------0-------------|
C|--------------------2/4---2p0-2/4-2|2---2---2---2----2p0---0---0|
G|-----------------------------------|----------------------------|
C|-----------------------------------|----------------------------|
G|-----------------------------------|----------------------------|
C|0--0-----0-----0----0---0-----0----|2-2-----2-2------2---2---2--|

e|----0-------0-----0------|----------------------------------|
C|----2/4-----2-----2/4\2p0|--------0------------0---------0--|
G|2p0-0---2p0-0-----0------|----------------------------------|
C|----2/4-----2-----2/4\2p0|--0h2h4---4--4/7-2-2---2p0-0------|
G|----0-------0-----0------|----------------------------------|
C|-------------------------|0------------0---0-----------0---0|

[Verse]

e|------------|------0---------0---------0---------0--|
C|7----7-----4|2---2---2-2---2---2-2---2---2-2---2---2|
G|------------|---------------------------------------|
C|------------|---------------------------------------|
G|------------|---------------------------------------|
C|0----0-----0|2-2-------2-2-------2-2-------2-2------|

e|------0---------0-----|------------------------------------------|
C|2---2-----2---2---5--0|--------0------------0-------------0------|
G|----------------------|------------------------------------------|
C|------------------5--0|--0h2h4---4--4/7-2-2---0h2p0---------0h2p0|
G|----------------------|-----------------------------2p0----------|
C|2-2-------2-2-----5--0|0------------0---0---------------0--------|

e|------------|------0---------0---------0---------0--|
C|7----7-----4|2---2---2-2---2---2-2---2---2-2---2---2|
G|------------|---------------------------------------|
C|------------|---------------------------------------|
G|------------|---------------------------------------|
C|0----0-----0|2-2-------2-2-------2-2-------2-2------|

e|------0---------0--------|------------------------------------------|
C|2---2-----2---2---5---5-0|--------0------------0--------------------|
G|-------------------------|------------------------------------------|
C|------------------5-5---0|--0h2h4---4--4/7-2-2---2h4p2p0-0h2p0-0-2p0|
G|-------------------------|------------------------------------------|
C|2-2-------2-2-----5-----0|0------------0---0------------------------|

[Chorus]

e|-------------------------------|---------------------------------------|
C|------0-------0-------0-------0|------0---------0---------0---------0--|
G|----0-------4-------4-------5--|----0---0-----0---0-----0---0-----0---0|
C|-------------------------------|---------------------------------------|
G|2-2-----4-4-----4-4-----5-5----|---------------------------------------|
C|-------------------------------|5-5-------5-5-------5-5-------5-5------|

e|-------------------------------|---------------------------------------|
C|------0-------0-------0-------0|------0---------0---------0---------0--|
G|----0-------0-------0-------0--|----0---0-----0---0-----0---0-----0---0|
C|-------------------------------|---------------------------------------|
G|5-5-----4-4-----4-4-----5-5----|2-2-------2-2-------2-2-------2-2------|
C|-------------------------------|---------------------------------------|

e|-------------------------------|----0-------0-------0-------0--|----0-------0-----0------|
C|------0-------0-------0-------0|--0---0---0---0---0---0---0---0|----2/4-----2-----2/4\2p0|
G|----0-------4-------4-------5--|-------------------------------|2p0-0---2p0-0-----0------|
C|-------------------------------|-------------------------------|----2/4-----2-----2/4\2p0|
G|2-2-----4-4-----4-4-----5-5----|-------------------------------|----0-------0-----0------|
C|-------------------------------|5-------5-------5-------5------|-------------------------|

[Intro]

e|3----5h8-5h8p5-5p3-----------------|------0-------0--------0-------0|
C|--------------------2/4---2p0-2/4-2|2---2---2---2----2---2----2--2--|
G|-----------------------------------|--------------------------------|
C|-----------------------------------|--------------------------------|
G|-----------------------------------|--------------------------------|
C|0--0-----0-----0----0---0-----0----|2-2-----2-2------2-2------2-----|

e|----0-------0-----0------|--------------------------------------|
C|----2/4-----2-----2/4\2p0|--------0------------0-------------0--|
G|2p0-0---2p0-0-----0------|--------------------------------------|
C|----2/4-----2-----2/4\2p0|--0h2h4---4--4/7-2-2---2h4p2p0-0-0---0|
G|----0-------0-----0------|--------------------------------------|
C|-------------------------|0------------0---0--------------------|

[Verse]

e|-----------------------|------0-------0-------0-------0|
C|7-----7-7-----7-4-----4|2---2---2---2---2---2---2---2--|
G|----0-------0-------0--|-------------------------------|
C|-----------------------|-------------------------------|
G|-----------------------|-------------------------------|
C|0-0-----0-0-----0-0----|2-2-----2-2-----2-2-----2-2----|

e|------0---------0--------|--------------------------------------------|
C|2---2-----2---2---5-----5|--------0------------0---------------0------|
G|-------------------------|--------------------------------------------|
C|------------------5---5--|--0h2h4---4--4/7-2-2---2h4p2p0---------0h2p0|
G|-------------------------|-------------------------------2p0----------|
C|2-2-------2-2-----5-5----|0------------0---0-----------------0--------|

e|-----------------------|------0-------0-------0-------0|
C|7-----7-7-----7-4-----4|2---2---2---2---2---2---2---2--|
G|----0-------0-------0--|-------------------------------|
C|-----------------------|-------------------------------|
G|-----------------------|-------------------------------|
C|0-0-----0-0-----0-0----|2-2-----2-2-----2-2-----2-2----|

e|------0---------0--------|------------------------------------------|
C|2---2-----2---2---5-----5|--------0------------0-------------0------|
G|-------------------------|------------------------------------------|
C|------------------5---5--|--0h2h4---4--4-4p2-2---2h4p2p0-0-0---0h2p0|
G|-------------------------|------------------------------------------|
C|2-2-------2-2-----5-5----|0------------0--0-------------------------|

[Chorus]

e|-------------------------------|---------------------------------------|
C|------0-------0-------0-------0|------0---------0---------0---------0--|
G|----0-------4-------4-------5--|----0---0-----0---0-----0---0-----0---0|
C|-------------------------------|---------------------------------------|
G|2-2-----4-4-----4-4-----5-5----|---------------------------------------|
C|-------------------------------|5-5-------5-5-------5-5-------5-5------|

e|-------------------------------|---------------------------------------|
C|------0-------0-------0-------0|------0---------0---------0---------0--|
G|----0-------0-------0-------0--|----0---0-----0---0-----0---0-----0---0|
C|-------------------------------|---------------------------------------|
G|5-5-----4-4-----4-4-----5-5----|2-2-------2-2-------2-2-------2-2------|
C|-------------------------------|---------------------------------------|

e|-------------------------------|----0-------0-------0-------0--|----0-------0-----0------|
C|------0-------0-------0-------0|--0---0---0---0---0---0---0---0|----2/4-----2-----2/4\2p0|
G|----0-------4-------4-------5--|-------------------------------|2p0-0---2p0-0-----0------|
C|-------------------------------|-------------------------------|----2/4-----2-----2/4\2p0|
G|2-2-----4-4-----4-4-----5-5----|-------------------------------|----0-------0-----0------|
C|-------------------------------|5-------5-------5-------5------|-------------------------|

[Intro] 

e|3----5h8-5h8p5-5p3-----------------|------0-------0--------0-------0|
C|--------------------2/4---2p0-2/4-2|2---2---2---2----2---2----2--2--|
G|-----------------------------------|--------------------------------|
C|-----------------------------------|--------------------------------|
G|-----------------------------------|--------------------------------|
C|0--0-----0-----0----0---0-----0----|2-2-----2-2------2-2------2-----|

e|----0h3-0h3p0----------------|---------------------------------------|
C|2-------------2p0-5p4-2p0----|--------0-----------0---------------0--|
G|--------------------------2p0|---------------------------------------|
C|-----------------------------|--0h2h4---4--4/7-2----2h4p2p0----------|
G|-----------------------------|------------------------------2p0------|
C|2-2-----2-----2p0------------|0------------0---0----------------0---0|

e|3----5h8-5h8p5-5p3-----------------|------0-------0-------------|
C|--------------------2/4---2p0-2/4-2|2---2---2---2----2p0---0---0|
G|-----------------------------------|----------------------------|
C|-----------------------------------|----------------------------|
G|-----------------------------------|----------------------------|
C|0--0-----0-----0----0---0-----0----|2-2-----2-2------2---2---2--|

e|----0-------0-----0------|--------------------------------------|
C|----2/4-----2-----2/4\2p0|--------0------------0-------------0--|
G|2p0-0---2p0-0-----0------|--------------------------------------|
C|----2/4-----2-----2/4\2p0|--0h2h4---4--4/7-2-2---2h4p2p0-0------|
G|----0-------0-----0------|--------------------------------------|
C|-------------------------|0------------0---0---------------0---0|

[Verse]

e|------------|----0-----0-----0-----0-----0-----0-----0-----0|
C|7----7-----4|--2-----2-----2-----2-----2-----2-----2-----2--|
G|------------|-----------------------------------------------|
C|------------|-----------------------------------------------|
G|------------|-----------------------------------------------|
C|0----0-----0|2-----2-----2-----2-----2-----2-----2-----2----|

e|----0-----0-----0-----0-----0-----0-----0-----0|-----------------------------------------------|
C|--2-----2-----2-----2-----2-----2-----5-----5--|----0-----0-----0-----0-----0-----0-----0-----0|
G|-----------------------------------------------|--0-----0-----0-----0-----0-----0-----0-----0--|
C|-----------------------------------------------|-----------------------------------------------|
C|-----------------------------------------------|-----------------------------------------------|
C|2-----2-----2-----2-----2-----2-----5-----5----|0-----0-----0-----0-----0-----0-----0-----0----|

e|------------|----0-----0-----0-----0-----0-----0-----0-----0|
C|7----7-----4|--2-----2-----2-----2-----2-----2-----2-----2--|
G|------------|-----------------------------------------------|
C|------------|-----------------------------------------------|
G|------------|-----------------------------------------------|
C|0----0-----0|2-----2-----2-----2-----2-----2-----2-----2----|

e|----0-----0-----0-----0-----0-----0-----0-----0|----------------------------------------|
C|--2-----2-----2-----2-----2-----2-----5-----5--|--------0------------0-----------0------|
G|-----------------------------------------------|----------------------------------------|
C|-----------------------------------------------|--0h2h4---4--4/7-2-2---2h4p2p0-0---0h2p0|
C|-----------------------------------------------|----------------------------------------|
C|2-----2-----2-----2-----2-----2-----5-----5----|0------------0---0----------------------|

[Chorus]

e|-------------------------------|---------------------------------------|
C|------0-------0-------0-------0|------0---------0---------0---------0--|
G|----0-------4-------4-------5--|----0---0-----0---0-----0---0-----0---0|
C|-------------------------------|---------------------------------------|
G|2-2-----4-4-----4-4-----5-5----|---------------------------------------|
C|-------------------------------|5-5-------5-5-------5-5-------5-5------|

e|-------------------------------|---------------------------------------|
C|------0-------0-------0-------0|------0---------0---------0---------0--|
G|----0-------0-------0-------0--|----0---0-----0---0-----0---0-----0---0|
C|-------------------------------|---------------------------------------|
G|5-5-----4-4-----4-4-----5-5----|2-2-------2-2-------2-2-------2-2------|
C|-------------------------------|---------------------------------------|          slows here
                                                                                    v
e|-------------------------------|----0-------0-------3-------0--|----0-------0-----0-------0|
C|------0-------0-------0-------0|--0---0---0---0---0---0---0---0|----2/4-----2-----2/4\2p0-0|
G|----0-------4-------4-------5--|-------------------------------|2p0-0---2p0-0-----0-------0|
C|-------------------------------|-------------------------------|----2/4-----2-----2/4\2p0-0|
G|2-2-----4-4-----4-4-----5-5----|-------------------------------|----0-------0-----0-------0|
C|-------------------------------|5-------5-------5-------5------|--------------------------0|

            
Submit corrections


        Shrike lessons Hard to play? Try these video lessons and learn fast Shrike lessons
        
↑ Back to top | Tablatures and chords for acoustic guitar and electric guitar, ukulele, drums are parodies/interpretations of the original songs. You may use it for private study, scholarship, research or language learning purposes only