Home » G » Goo Goo Dolls »

Goo Goo Dolls - Black Balloon Bass

Artists:  A B C D E F G H I J K L M N O P Q R S T U V W X Y Z # 

Black Balloon Bass

(ver. 3) Click to play this song!
Goo Goo Dolls
 Rating:
4/5 (4 votes)
                ~intro~
----------------------|
----------5-555-5555--|
5-555-5555------------| X5
----------------------|

---4-6-7-----------------------------------------|
-------------------------------------------------|
-------------------------------------------------|
---------7-7-7-7-7-7-7-7-10-10-10-10-10-10-10-10-|

LINK

----------------------------------|
----------------------------------|
-5-5-5--5-5-5-5-------------------|
----------------3-3-3--3-3-3-3----| (X2)

VERSE 2

---------------------------|
---------------------------|
-5-5-5--5-5----------------|
------------3-3-3--3-3-----| (X3)

-------------------------------------------|
-------4-5-7-7-7-7-7-7-7-7-5-5-5-5-5-5-5-5-|
-2-4-5-------------------------------------|
-------------------------------------------|

CHORUS

-----------------------------------------|
-----------------------------------------|
-------------------------5-5-5-5---------|
-7-7-7---5-5-5-5-3-3-3-------------------| (X3)

-----------------------------------------|
-----------------------------------------|
-----------------------------------------|
-3-3-3---5-5-----------------------------|

VERSE 3
(SAME AS VERSE 2)

CHORUS

SOLO

-------------------------------------------------|
-------------------------------------------------|
-------------------------------------------------|
-2-2-2-2-2-2-2-2-3-3-3-3-3-3-3-3-7-7-7-7-7-7-7-7-|

-------------------------------------------------|
-------------------------------------------------|
-------------------------------------------------|
-5-5-5-5-5-5-5-5-2-2-2-2-2-2-2-2-3-3-3-3-3-3-3-3-|

-----------------------------------------------------|
-----------------------------------------------------|
-----------------------------------------------------|
-7-7-7---5-5-5-5-3-3-3-3-3-3-3-3-3---3---3---2--0//3-|

BRIDGE
-----------------------------------------------------------------|
-----------------------------------------------------------------|
-----------------------------------------------------------------|
-2-2-2-2-2-2-2-2-3-3-3-3-3-3-3-3-3-5-5-5-5-5-5-5-5-5-5-5-5-5-5-5-|

CHORUS

SAME AS FIRST AND SECOND CHORUS +
-----------------------------------|
-----------------------------------|
---------------------------5-5-5-5-| (X3)
-7-7-7---5-5-5-5---3-3-3-----------|

--------------------------------------------------------------------|
--------------------------------------------------------------------|
----------------------------------------------------------------5~--|
-3-3-3-5-5-2-2-2-2-2-2-2-2--0~--------------------3~----------------|
           All because I'm, And I'll become, What you became to me
            
Submit corrections

↑ Back to top | Tablatures and chords for acoustic guitar and electric guitar, ukulele, drums are parodies/interpretations of the original songs. You may use it for private study, scholarship, research or language learning purposes only