Home » G » Goo Goo Dolls »

Goo Goo Dolls - I'm Still Here Tabs

Artists:  A B C D E F G H I J K L M N O P Q R S T U V W X Y Z # 

I'm Still Here Tabs

(ver. 1) Click to play this song!
Goo Goo Dolls
 Rating:
4/5 (4 votes)
                

Tuning (DADGBE)
--------------------------------------------------------------
Tableture

Riff 1
---------0---0------------0---0---
----------------------------------
-------2---2------------2---2-----
----------------------------------
--0-------------------------------
-------------------0--------------

Riff 2
----------0----------------0------
--------0-----0----------0-----0--
------2-----2----------2-----2----
-------------------0--------------
--2-------------------------------
----------------------------------

Riff 3
------0-------0-------0-----------
----------------------------------
----2-------2-------2-------------
--4-------2-------0---------------
----------------------------------
----------------------------------


Chorus Riff
A   | Dsus2 | 3x
Bm  | Dsus2 |
A   | Dsus2 | 3x
Fis | Asus2 | Dsus2  


Bridge
-------------------------------------------------
-------------------------------------------------
-------------------------------------------------
-------------------------------------------------
-------------------------------------------------
-0-0-0-0-----2-2-2-2-----4-4-4-4---5-4-0-5-4-0---
-0-0-0-0-----2-2-2-2-----4-4-4-4-----------------


--------------------------------------------------------------
Order

Riff 1      x5 
Riff 2      x1
Riff 1      x3
Riff 3      x1
Riff 1      x5
Riff 2      x1
Riff 1      x3
Riff 3      x1

Chorus Riff 1x

Riff 1      x3
Riff 2      x1
Riff 1      x3
Riff 3      x1

Chorus Riff 1x

Bridge      4x

Chorus Riff 1x

|Fis|Asus2|Dsus2| repeat till end


Lyrics

                                          |Riff 1
                                          | 
I am a question to the world,             |
Not an answer to be heard.                |
All a moment that's held in your arms.    |Riff 1 Riff 2
And what do you think you'd ever say?     |Riff 1 
I don't listen anyway:                    |
You ignore me,                            |
And I'll never be what you want me to be. |Riff 3
                                          |Riff 1
                                          |
And what do you think you'd understand?   |
I'm a boy, not a man.                     |
You can take me and throw me away.        |Riff 1 Riff 2
And how can you learn what's never shown? |Riff 1
Yeah, you stand here all alone.           |
They don't know me                        |
'cause I'm not here.                      |Riff 3
                                          |
And I want a moment to be real,           |Chorus Riff
Wanna touch things I don't feel,          |
Wanna hold on and feel I belong.          |
And how can the world want me to change,  |
They're the ones that stay the same.      |
The don't know me,                        |
'Cause I'm not here.                      |
                                          |
And you see the things they never see     |Riff 1
All you wanted, I could be                |
Now you know me, and I'm not afraid       |Riff 1 Riff 2
And I wanna tell you who I am             |Riff 1
Can you help me be a man?                 |
They can break me                         |
As long as I know who I am                |Riff 3
                                          |
And I want a moment to be real,           |Chorus Riff
Wanna touch things I don't feel,          | 
Wanna hold on and feel I belong.          |
And how can the world want me to change,  |
They're the ones that stay the same.      |
They can't see me,                        |
But I'm still here.                       |
                                          |
They can't tell me who to be,             |Bridge
'Cause I'm not what they see.             |
And the world is still sleepin',          |
While I keep on dreamin' for me.          |
And they'll want to just whispers,        |
And lies that I'll never believe.         |
                                          |
And I want a moment to be real,           |Chorus Riff
Wanna touch things I don't feel,          |
Wanna hold on and feel I belong.          |
And how can they say i never change,      |
They're the ones that stay the same.      |
I'm the one now,                          |
'Cause I'm still here.                    |
                                          |
I'm the one,                              | Fis | Asus2 | Dsus2 | repeat till end
'Cause I'm still here.                    |
I'm still here.                           |
I'm still here.                           |
I'm still here.                           |


I Hope this is the right way to tab it since this is my first tab
If you guys have any comments or sugestions please e-mail me @

Thanks a bunch, Ben
            
Submit corrections

↑ Back to top | Tablatures and chords for acoustic guitar and electric guitar, ukulele, drums are parodies/interpretations of the original songs. You may use it for private study, scholarship, research or language learning purposes only