Home » G » Goo Goo Dolls »

Goo Goo Dolls - Black Balloon Bass

Artists:  A B C D E F G H I J K L M N O P Q R S T U V W X Y Z # 

Black Balloon Bass

(ver. 2) Click to play this song!
Goo Goo Dolls
-----------------------------------------------------------------------
			     Black Balloon – Goo Goo Dolls
-----------------------------------------------------------------------


Tuning: Standard [E A D G]

I play this song on guitar all the time.
I was recently at a friend’s house and we wanted to 'jam'... but we didn’t want to tune 
bass down, so we improvised a little bit.
This song took quite some time for us to make all the right corrections. This song will 
some time to learn as well, but when you master it… you will feel GREAT, like Tony the 
Good Luck.
Brian Koenig.


Verse 1
G|--------------------------------------------------------------------|
D|--------------------------------------------------------------------|
A|-4------------4-------------4-------------4------------4------------|
E|-------2-------------2-------------2------------2-------------2-----|

Bridge 1
G|--------------------------------------------------------------------|
D|--------------------------------------------------------------------|
A|-1----3----4----------6---------------------------------------------|
E|-----------------------------2--------------------------------------|

Verse 2
G|--------------------------------------------------------------------|
D|--------------------------------------------------------------------|
A|-4------------4-------------4-------------4------------4------------|
E|-------2-------------2-------------2------------2-------------2-----|

Bridge 2
G|--------------------------------------------------------------------|
D|--------------------------------------------------------------------|
A|-1----3----4--------------------------------------------------------|
E|--------------------4-------2---------------------------------------|

Chorus
G|--------------------------------------------------------------------|
D|--------------------------------------------------------------------|
A|-1--------------4-------1--------------4--------1--------------4----|
E|------4----2-----------------4----2------------------4----2---------|

BREAK for about 4 seconds then resume…

Verse 3
G|--------------------------------------------------------------------|
D|--------------------------------------------------------------------|
A|-4------------4-------------4-------------4------------4------------|
E|-------2-------------2-------------2------------2-------------2-----|

Bridge 2
G|--------------------------------------------------------------------|
D|--------------------------------------------------------------------|
A|-1----3----4--------------------------------------------------------|
E|--------------------4-------2---------------------------------------|

Chorus
G|--------------------------------------------------------------------|
D|--------------------------------------------------------------------|
A|-1--------------4-------1--------------4--------1--------------4----|
E|------4----2-----------------4----2------------------4----2---------|

BREAK for about 4 seconds then run right into the solo.

Solo
G|--------------------------------------------------------------------|
D|--------------------------------------------------------------------|
A|------------------------------------------------------6-------------|
E|-1----2----6----4----1----2----6----4----2-2-2-2-2-1----------------|

G|--------------------------------------------------------------------|
D|--------------------------------------------------------------------|
A|--------------------------------------------------------------------|
E|-1----2----4--------------------------------------------------------|

Chorus
G|--------------------------------------------------------------------|
D|--------------------------------------------------------------------|
A|-1--------------4-------1--------------4--------1--------------4----|
E|------4----2-----------------4----2------------------4----2---------|

BREAK for about 4 seconds then resume…

Chorus
G|--------------------------------------------------------------------|
D|--------------------------------------------------------------------|
A|-1--------------4-------1--------------4--------1---------------4---|
E|------4----2-----------------4----2------------------4----2---------|

BREAK for about 4 seconds then resume…

Outro
G|--------------------------------------------------------------------|
D|--------------------------------------------------------------------|
A|------------6----------------------4--------------------------------|
E|-1---------------------2--------------------------------------------|
            
Submit corrections

↑ Back to top | Tablatures and chords for acoustic guitar and electric guitar, ukulele, drums are parodies/interpretations of the original songs. You may use it for private study, scholarship, research or language learning purposes only