Home » G » Goo Goo Dolls »

Goo Goo Dolls - Black Balloon Tabs

Artists:  A B C D E F G H I J K L M N O P Q R S T U V W X Y Z # 

Black Balloon Tabs

(ver. 2) Click to play this song!
Goo Goo Dolls
 Rating:
4/5 (4 votes)
                Tuning: low-> Db-Ab-Db-Ab-Db-Db  <-high

Hey guys.  I was messing around w/ creed’s D-A-D-A-D-D tuning and I starting playing some stuff and I thought it seemed familiar so I listened to the song and played parts I thought I got and found out that It needed to go down a half step and I just tabbed out what I heard..so enjoy

Opening:

 All harmonics
Play 4x  (this is played throughout most of the song over verses)
|---------------------------------------------------------|
|---------------------------------------------------------|
|---------------------------------------------------------|
|------------------------------4--5-----------------------|
|----------5---4--5-------5----------4-5------------------|
|----9----------------9-----------------------------------|

Verse (listen to song for strumming pattern)
|---0---0-0-0--0-0-0-0---0--0-0-0--0-0--0-0---------------|
|---0---0-0-0--0-0-0-0---0--0-0-0--0-0--0-0---------------|
|---0---0-0-0--0-0-0-0---0--0-0-0--0-0--0-0---------------|
|---x---x-x-x--x-x-0-0---0--0-0-0--0-0--0-0---------------|
|---5---5-5-5--5-5-0-0---x--x-x-x--x-x--0-0---------------|
|------------------------5--5-5-5--5-5--0-0---------------|

Pre-Chorus before Chorus 1

|--------0-0-0--------0-0-0------------0-0-0---0-0-0-0----|
|--------0-0-0--------0-0-0------------0-0-0---0-0-0-0----|
|----0-------------0----------------0----------0-0-0-0----|
|----------------------------------------------x-x-x-x----|
|--2------------4----------------5-------------5-5-5-5----|
|---------------------------------------------------------|









|---0--0-0-0-0--0-0-0--0-0-0--0--0-0-0-0--0-0-0--0-0-0----|
|---0--0-0-0-0--0-0-0--0-0-0--0--0-0-0-0--0-0-0--0-0-0----|
|---0--0-0-0-0--0-0-0--0-0-0--0--0-0-0-0--0-0-0--0-0-0----|
|---0--0-0-0-0--0-0-0--0-0-0--0--0-0-0-0--0-0-0--0-0-0----|
|---2--2-2-2-2--2-2-2--2-2-2--5--5-5-5-5--5-5-5--5-5-5----|
|---2--2-2-2-2--2-2-2--2-2-2--5--5-5-5-5--5-5-5--5-5-5----|

Next: Go into Verse again

Pre-chorus before verses 2 & 3

|--------0-0-0--------0-0-0------------0-0-0---0-0-0-0----|
|--------0-0-0--------0-0-0------------0-0-0---0-0-0-0----|
|----0-------------0----------------0----------0-0-0-0----|
|----------------------------------------------x-x-x-x----|
|--2------------4----------------5-------------5-5-5-5----|
|---------------------------------------------------------|

|---0--0-0-0-0--0-0-0--0-0-0--0--0-0-0-0--0-0-0--0-0-0----|
|---0--0-0-0-0--0-0-0--0-0-0--0--0-0-0-0--0-0-0--0-0-0----|
|---0--0-0-0-0--0-0-0--0-0-0--0--0-0-0-0--0-0-0--0-0-0----|
|---0--0-0-0-0--0-0-0--0-0-0--0--0-0-0-0--0-0-0--0-0-0----|
|---7--7-7-7-7--7-7-7--7-7-7--5--5-5-5-5--5-5-5--5-5-5----|
|---7--7-7-7-7--7-7-7--7-7-7--5--5-5-5-5--5-5-5--5-5-5----|

Chorus: (listen for strumming)

Play 3x
|---0--0-0-0-0--0-0-0--0-0-0--0--0-0-0-0--0-0-0--0-0-0----|
|---0--0-0-0-0--0-0-0--0-0-0--0--0-0-0-0--0-0-0--0-0-0----|
|---0--0-0-0-0--0-0-0--0-0-0--0--0-0-0-0--0-0-0--0-0-0----|
|---0--0-0-0-0--0-0-0--0-0-0--0--0-0-0-0--0-0-0--0-0-0----|
|---9--9-9-9-9--7-7-7--7-7-7--5--5-5-5-5--4-4-4--4-4-4----|
|---9--9-9-9-9--7-7-7--7-7-7--5--5-5-5-5--5-5-5--5-5-5----|

Post Chorus: 

…..Or are you someone’s prayer…….
|---0--0-0-0-0--0-0-0--0-0-0—|
|---0--0-0-0-0--0-0-0--0-0-0-|
|---0--0-0-0-0--0-0-0--0-0-0-|
|---0--0-0-0-0--0-0-0--0-0-0-|
|---5--5-5-5-5--7-7-7--7-7-7-|
|---5--5-5-5-5--7-7-7--7-7-7-|



VERSE AGAIN

POST-CHORUS AGAIN

CHORUS AGAIN

POST CHORUS AGAIN

Bridge:
|---0--0-0-0-0--0-0-0--0-0-0--0--0-0-0-0--0-0-0--0-0-0----|
|---0--0-0-0-0--0-0-0--0-0-0--0--0-0-0-0--0-0-0--0-0-0----|
|---0--0-0-0-0--0-0-0--0-0-0--0--0-0-0-0--0-0-0--0-0-0----|
|---0--0-0-0-0--0-0-0--0-0-0--0--0-0-0-0--0-0-0--0-0-0----|
|---4--4-4-4-4--4-4-4—-4-4-4--5--5-5-5-5--5-5-5--5-5-5----|
|---4--4-4-4-4--4-4-4--4-4-4--5--5-5-5-5--5-5-5--5-5-5----|

|---0--0-0-0-0--0-0-0--0-0-0--0--0-0-0-0--0-0-0--0-0-0----|
|---0--0-0-0-0--0-0-0--0-0-0--0--0-0-0-0--0-0-0--0-0-0----|
|---0--0-0-0-0--0-0-0--0-0-0--0--0-0-0-0--0-0-0--0-0-0----|
|---0--0-0-0-0--0-0-0--0-0-0--0--0-0-0-0--0-0-0--0-0-0----|
|---9--9-9-9-9--9-9-9--9-9-9--7--7-7-7-7--7-7-7--7-7-7----|
|---9--9-9-9-9--9-9-9--9-9-9--7--7-7-7-7--7-7-7--7-7-7----|


|---0--0-0-0-0--0-0-0--0-0-0--0--0-0-0-0--0-0-0--0-0-0----|
|---0--0-0-0-0--0-0-0--0-0-0--0--0-0-0-0--0-0-0--0-0-0----|
|---0--0-0-0-0--0-0-0--0-0-0--0--0-0-0-0--0-0-0--0-0-0----|
|---0--0-0-0-0--0-0-0--0-0-0--0--0-0-0-0--0-0-0--0-0-0----|
|---4--4-4-4-4--4-4-4—-4-4-4--5--5-5-5-5--5-5-5--5-5-5----|
|---4--4-4-4-4--4-4-4--4-4-4--5--5-5-5-5--5-5-5--5-5-5----|

|---0--0-0-0-0--0-0-0--0-0-0--0--0-0-0-0--0-0-0--0-0-0----|
|---0--0-0-0-0--0-0-0--0-0-0--0--0-0-0-0--0-0-0--0-0-0----|
|---0--0-0-0-0--0-0-0--0-0-0--0--0-0-0-0--0-0-0--0-0-0----|
|---0--0-0-0-0--0-0-0--0-0-0--0--0-0-0-0--0-0-0--0-0-0----|
|---9--9-9-7-7--7-7-7—-5-5-5--4--4-4-4-4--5-5-5--5-5-5----|
|---9--9-9-7-7--7-7-7--5-5-5--4--4-4-4-4--5-5-5--5-5-5----|

|---0--0-|
|---0--0-|
|---0--0-|
|---0--0-|
|---4--2-|
|---4--2-|



REST 4 COUNTS
 …..And there’s no time………..
|---0--0-0-0-0--0-0-0--0-0-0--0--0-0-0-0--0-0-0--0-0-0----|
|---0--0-0-0-0--0-0-0--0-0-0--0--0-0-0-0--0-0-0--0-0-0----|
|---0--0-0-0-0--0-0-0--0-0-0--0--0-0-0-0--0-0-0--0-0-0----|
|---0--0-0-0-0--0-0-0--0-0-0--0--0-0-0-0--0-0-0--0-0-0----|
|---4--4-4-4-4--4-4-4—-4-4-4--5--5-5-5-5--5-5-5--5-5-5----|
|---4--4-4-4-4--4-4-4--4-4-4--5--5-5-5-5--5-5-5--5-5-5----|

|---0--0-0-0-0--0-0-0--0-0-0--0--0-0-0-0--0-0-0--0-0-0----|
|---0--0-0-0-0--0-0-0--0-0-0--0--0-0-0-0--0-0-0--0-0-0----|
|---0--0-0-0-0--0-0-0--0-0-0--0--0-0-0-0--0-0-0--0-0-0----|
|---0--0-0-0-0--0-0-0--0-0-0--0--0-0-0-0--0-0-0--0-0-0----|
|---7--7-7-7-7--7-7-7--7-7-7--7--7-7-7-7--7-7-7--7-7-7----|
|---7--7-7-7-7--7-7-7--7-7-7--7--7-7-7-7--7-7-7--7-7-7----|

GO INTO CHORUS

POST CHORUS

CHORUS AGAIN

POST CHORUS

PLAY THIS ONCE
…(all because im) &#61663;second time sang
|-0--0-0--0-0-0---|
|-0--0-0--0-0-0---|
|-0--0-0--0-0-0---|
|-0--0-0--0-0-0---|
|-4--4-4--4-4-4---|
|-4--4-4--4-4-4---|


ENDING

And I’ll become what you became to me
|--0----------------0---------------0---|
|--0----------------0---------------0---|
|--0----------------0---------------0---|
|--0----------------0---------------0---|
|--2----------------5---------------0---|
|--2----------------5---------------0---|



|---------------------------------------------------------|
|---------------------------------------------------------|
|---------------------------------------------------------|
|------------------------------4--5-----------------------|
|----------5---4--5-------5----------4-5------------------|
|----9----------------9-----------------------------------|
            
Submit corrections

↑ Back to top | Tablatures and chords for acoustic guitar and electric guitar, ukulele, drums are parodies/interpretations of the original songs. You may use it for private study, scholarship, research or language learning purposes only