Home » G » Goo Goo Dolls »

Goo Goo Dolls - Black Balloon Tabs

Artists:  A B C D E F G H I J K L M N O P Q R S T U V W X Y Z # 

Black Balloon Tabs

(ver. 3) Click to play this song!
Goo Goo Dolls
 Rating:
4/5 (4 votes)
                Tuning:D A D A A d
      (low to high)

Chords: 
D  000000
G  550000
E  x77000
D2 x55000
B  990000
A  770000
F# 440000
E2 220000
C# x44000

riff 1:             
d-------0-------0-------0---
D-----0-------0-------0-----
A---0-------0-------0-------
D---------------------------
A-2-------4-------5---------
D---------------------------

Intro:(x4)
d-------------------------|--------------------------
D-------------------------|--------------------------
A-<12>--------------------|-<12>---------------------
D-<12>---<7>-<5>-<7>-<12>-|-<12>---<9>-<5>-----<5>---
A-<12>--------------------|-<12>-----------<9>-------
D-<12>--------------------|-<12>---------------------


verse:
D                              G
Baby's black balloon makes her fly
D                       G
I almost fell into that hole in your life
D                               G   
And you're not thinking about tomorrow 
 (keep strummin the G chord until
'cause you were the same as me 
you get to E)E    D2
But on your knees

D-G-D-G

Chorus:
B      A        G            D
Comin' down the world turned over
    B      A        G       D
And angels fall without you there
    B    A     G       D
And I go on as you get colder
   G       A      
Or are you someone's prayer

D-G-D-G

Bridge:
F#-G-B-A

F#-G B-A-G G-G-F#-E   (slide up to G)

F#            G             A
And there's no time left for losin'

When you stand they fall

Breakdown:
F
All because I'm
E
And I'll become
G                  D
What you became to me

ORDER:
VERSE x2
CHORUS x1
VERSE x1
CHORUS x1
BRIDGE x1
CHORUS x2
BREAKDOWN x1
            
Submit corrections

↑ Back to top | Tablatures and chords for acoustic guitar and electric guitar, ukulele, drums are parodies/interpretations of the original songs. You may use it for private study, scholarship, research or language learning purposes only