» » »

Foals - Two Step Twice Bass

Artists:  A B C D E F G H I J K L M N O P Q R S T U V W X Y Z # 

Two Step Twice Bass

(ver. 1) Click to play this song!
Foals
 Rating:
4/5 (4 votes)


 Two Step Twice lessons Tabs too difficult? Try these video lessons and learn fast
 
                I know people have been waiting for this tab, well here it is, enjoy :)

Pt1    |--------------------------|
(0:20) |--------------------------|
       |------------------8-10-12-|x5   (8-10-12) optional
       |1010--1010--1010----------|

Pt2     |--------------------------|
(0:30)  |--------------------------|
        |--------------------------|x3
        |10--10--10----------------|

Pt1:x2
(0:56)

Pt3    |------------------------------------------------------------------| 
(1:04) |------------------------------------------------------------------|
       |------------------------------------8-8-8-8-8-8-10-10-10-12-12-12-|x3
       |10-10-10-10-10-10-10-10-10-10-10-10-------------------------------|

Pt3    |-----------------------------------------------------------------------|(slight change) 
(1:28) |-----------------------------------------------------------------------|
       |------------------------------------8-8-8-8-8-8101010101010121212121212-|
       |10-10-10-10-10-10-10-10-10-10-10-10------------------------------------|

 |------------------|
 |------------------|
 |------------------|x1
 |10-10-10-10-10-10-|
    
Pt4     |--------------------------------|
(2:18)  |--------------------------------|(optional)
        |--------------------------------|x15
        |10-1010-10-1010-10-1010-10-1010-|

Pt 5   |------------------|
(3:08) |------------------|
       |------------------|x1
       |10-10-10-10-10-10-|

Pt 6   |----------------------------------------------------------|
chorus |-------------------------------------------------10101212-|
(3:11) |---------------------881010-12-121212-121212-1212---------|x10
       |10-101010-101010-1010-------------------------------------|

This is my first try at making a tab but i hope this is near enough right.
If you think it is different tell me.
Thanks Max.
            
Submit corrections



        Two Step Twice lessons Hard to play? Try these video lessons and learn fast Two Step Twice lessons
        
↑ Back to top | Tablatures and chords for acoustic guitar and electric guitar, ukulele, drums are parodies/interpretations of the original songs. You may use it for private study, scholarship, research or language learning purposes only