Home » F » Foals »

Foals - Tron Bass

Artists:  A B C D E F G H I J K L M N O P Q R S T U V W X Y Z # 

Tron Bass

(ver. 2) Click to play this song!
Foals
Foals - Tron


G|--77-77-77-77----------------------------------------| 6x
D|--------------88-88-1010-1010------------------------|
A|-----------------------------------------------------|
E|-----------------------------------------------------|


G|------------1212---1212-14-12---------------------------------------| 4x
D|-1212-12--15-----15------------15-15-151515--12-12-12-12-12-12------|
A|--------------------------------------------------------------------|
E|--------------------------------------------------------------------|  


G|--7777777777777777-------------------------|
D|*-----------------88888888----10101010-----|
A|*-------------------------8888-------------|
E|-------------------------------------------|
                                                      
G|-7777777777777777--------10101010----------|
D|-----------------88888888--------10101010-*|
A|------------------------------------------*|
E|-------------------------------------------|


G|--7-7-77-7-7-77-| 4x
D|----------------|
A|----------------|
E|----------------|


G|-7-7-77-7-7-77-7-7-77-7-7-77-------------------------------------| 2x
D|-----------------------------8-8-88-8-8-88-10-10-1010-10-10-1010-|
A|-----------------------------------------------------------------|
E|-----------------------------------------------------------------|


G|-------------------------------------------------------------------------| 3x
D|-------------------------------------------------------------------------|
A|-------------------------------------------------------------------------|
E|-10-10-1010-10-10-1010-10-10-1010-10-10-1010-6-6-66-6-6-66-8-8-88-8-8-88-|


G|-----------------------------------------------| 4x
D|-----------------------------------------------|
A|-----------------------------------------------|
E|-10(24x)-666666666666-888888888888--Q----------|

G|--7777777777777777-------------------------|
D|*-----------------88888888----10101010-----|
A|*-------------------------8888-------------|
E|-------------------------------------------|
                                                      
G|-7777777777777777--------10101010----------|
D|-----------------88888888--------10101010-*|
A|------------------------------------------*|
E|-------------------------------------------|

G|------------1212---1212-14-12---------------------------------------| 4x
D|-1212-12--15-----15------------15-15-151515--12-12-12-12-12-12------|
A|--------------------------------------------------------------------|
E|--------------------------------------------------------------------|  

Viel Erfolg!
 
            
Submit corrections

↑ Back to top | Tablatures and chords for acoustic guitar and electric guitar, ukulele, drums are parodies/interpretations of the original songs. You may use it for private study, scholarship, research or language learning purposes only