Home » F » Foals »

Foals - Spanish Sahara Tabs

Artists:  A B C D E F G H I J K L M N O P Q R S T U V W X Y Z # 

Spanish Sahara Tabs

(ver. 2) Click to play this song!
Foals
[VERSE 1]
   So I walked into the haze   And a million dirty waves
e|---------------------------|------------------------|
B|---------------------------|------------------------|
G|--7--9-7------5-7/9----7---|--7---7-7\5-----5/7---5-|
D|---------------------------|------------------------|
A|---------------------------|------------------------|
E|---------------------------|------------------------|

   Now I see you lying there   Like a lilo losing air, air
e|---------------------------|-------------------------------|
B|---------------------------|-------------------------------|
G|--7---9-7---5---7/9---7----|--7----7-7\5--5/7----5----5\4--|
D|---------------------------|-------------------------------|
A|---------------------------|-------------------------------|
E|---------------------------|-------------------------------|

   Black rocks and shoreline sand   Still that summer I cannot bear
e|--------------------------------|-------------------------------|
B|--------------------------------|-------------------------------|
G|--7-9---7-----5---7/9-------7---|--7-----7----7\5----5-5/7----5-|
D|--------------------------------|-------------------------------|
A|--------------------------------|-------------------------------|
E|--------------------------------|-------------------------------|

   And I wipe the sand off my arms    The Spanish Sahara, the place that you'd wanna Leave the horror here
e|-----------------------------------|---------------------------------------------------------------------|
B|-----------------------------------|---------------------------------------------------------------------|
G|--7---9-7----5---7----7/9----7\5\2-|-5/7---------7-7-5---5---7-----7----7-----5-----5---------5-7----5---|
D|-----------------------------------|------------------------------------------------------7--------------|
A|-----------------------------------|---------------------------------------------------------------------|
E|-----------------------------------|---------------------------------------------------------------------|

[CHORUS 1]
   Forget the horror here  Forget the horror here
e|-----------------------|------------------------|
B|-----------------------|------------------------|
G|-----5-------5-7----5--|-----5-------5-7----5---|
D|--7------7-------------|--7------7--------------|
A|-----------------------|------------------------|
E|-----------------------|------------------------|

   Leave it all down here   It's future rust and it's future dust
e|------------------------|-------------------------------------|
B|------------------------|-------------------------------------|
G|--5--------5---7----5---|-------5-7----5----5--------5-7----5-|
D|--------7---------------|--7--------------------7-------------|
A|------------------------|-------------------------------------|
E|------------------------|-------------------------------------|

  Forget the horror here  Forget the horror here
e|-----------------------|------------------------|
B|-----------------------|------------------------|
G|-----5-------5-7----5--|-----5-------5-7----5---|
D|--7------7-------------|--7------7--------------|
A|-----------------------|------------------------|
E|-----------------------|------------------------|

   Leave it all down here   It's future rust and it's future dust
e|------------------------|-------------------------------------|
B|------------------------|-------------------------------------|
G|--5--------5---7----5---|-------5-7----5----5--------5-7----5-|
D|--------7---------------|--7--------------------7-------------|
A|------------------------|-------------------------------------|
E|------------------------|-------------------------------------|

[VERSE 2]
   Now the waves they drag you down   Carry you to broken ground
e|----------------------------------|-----------------------------|
B|----------------------------------|-----------------------------|
G|--7/9-----7-----5----7/9------7---|--7-7---7---5--5/7----5\4\2--|
D|----------------------------------|-----------------------------|
A|----------------------------------|-----------------------------|
E|----------------------------------|-----------------------------|

   Now I find you in the sand   Wipe you clean with dirty hands
e|----------------------------|----------------------------------|
B|----------------------------|----------------------------------|
G|--7/9---7----5---7/9----7---|--7----7---7-----5----5/7---5-----|
D|----------------------------|----------------------------------|
A|----------------------------|----------------------------------|
E|----------------------------|----------------------------------|

   So goddamn this boiling space   The Spanish Sahara, the place that you'd wanna   Leave the horror here
e|-----------------|---------------------------------------------------------------------------------------|
B|-----------------|---------------------------------------------------------------------------------------|
G|--7/9---7----5----7/9-----7----|--7---7---7---7-7-5---5---7-----7----7-----5-------5---------5--7---5----|
D|-----------------|-----------------------------------------------------------------------7---------------|
A|-----------------|---------------------------------------------------------------------------------------|
E|-----------------|---------------------------------------------------------------------------------------|

[CHORUS 2]
   Forget the horror here  Forget the horror here
e|-----------------------|------------------------|
B|-----------------------|------------------------|
G|-----5-------5-7----5--|-----5-------5-7----5---|
D|--7------7-------------|--7------7--------------|
A|-----------------------|------------------------|
E|-----------------------|------------------------|

   Leave it all down here   It's future rust and it's future dust
e|------------------------|-------------------------------------|
B|------------------------|-------------------------------------|
G|--5--------5---7----5---|-------5-7----5----5--------5-7----5-|
D|--------7---------------|--7--------------------7-------------|
A|------------------------|-------------------------------------|
E|------------------------|-------------------------------------|

   I'm the fury in your head    I'm the fury in your bed
e|----------------------------|-------------------------|
B|----------------------------|-------------------------|
G|--7---9---7\5--7/9-----7----|--7---9---7\5--7/9-----7-|
D|----------------------------|-------------------------|
A|----------------------------|-------------------------|
E|----------------------------|-------------------------|
   I'm the ghost in the back of your head    'Cause I am
e|-------------------------------------------------------|
B|-------------------------------------------------------|
G|--7---9---7-----5--5---7----7--7/9--7--------7-----7-5-|
D|-------------------------------------------------------|
A|-------------------------------------------------------|
E|-------------------------------------------------------|            
Submit corrections

↑ Back to top | Tablatures and chords for acoustic guitar and electric guitar, ukulele, drums are parodies/interpretations of the original songs. You may use it for private study, scholarship, research or language learning purposes only