Home » F » Foals »

Foals - Snake Oil Tabs

Artists:  A B C D E F G H I J K L M N O P Q R S T U V W X Y Z # 

Snake Oil Tabs

(ver. 2) Click to play this song!
Foals
[Intro/Verse]
e|---------------------------------------------------------------------------|
B|---------------------------------------------------------------------------|
G|---------------------------------------------------------------------------|
D|-------------------------------2~------------------------------------------|
A|---------------------------------------------------------------------------|
E|-0-0-0-3b-3b-0-0-3b-0-3b-0-0-3---------------------------------------------|

[Verse]
(Guitar 2)
e|-15-12---------------------------------------------------------------------|
B|-------15-12----12-----------12--------------------------------------------|
G|-------------14----14--14-14-----------------------------------------------|
D|---------------------------------14-14--12-14------------------------------|
A|---------------------------------------------------------------------------|
E|---------------------------------------------------------------------------|

[Chorus]
e|---------------------------------------------------------------------------|
B|---------------------------------------------------------------------------|
G|---------------------------------------------------------------------------|
D|----------------------------------------9-7--------------------------------|
A|----------------------10----10-12-----------10-7---------------------------|
E|-3-5-0--9h10p9-10-12-----12-------12~--------------------------------------|

[Bridge]
e|---------------------------------------------------------------------------|
B|---------------------------------------------------------------------------|
G|---------------------------------------------------------------------------|
D|---------------------------------------------------------------------------|
A|---------------------------------------------------------------------------|
E|-0-3-/7~--7-7-5-3-0--3-0-3-7-5~--7-5-3-5--0-3-/7~--7-7-5-3-0--3-0-3-5-0----|

(Guitar 1)
e|---------------------------------------------------------------------------|
B|---------------------------------------------------------------------------|
G|---------------------------------------------------------------------------|
D|-9-9-------------------------------------------9-9-9-9-9-9-----------------|
A|-7-7-10-10-12-12-12-12-10-10-12-12-12-12-10-10-7-7-7-7-7-7-----------------|
E|---------------------------------------------------------------------------|

(Guitar 2)
e|---------------------------------------------------------------------------|
B|---------------------------------------------------------------------------|
G|---------------------------------------------------------------------------|
D|-2-2-5-5-7-7-7-7-5-5-7-7-7-7-5-5-2-2-2-2-0-2-------------------------------|
A|-2-2-5-5-7-7-7-7-5-5-5-5-5-5-5-5-2-2-2-2-0-2-------------------------------|
E|-0-0-3-3-5-5-5-5-3-3-5-5-5-5-3-3-0-0-0-0-0-0-------------------------------|

e|---------------------------------------------------------------------------|
B|---------------------------------------------------------------------------|
G|---------------------------------------------------------------------------|
D|-9-7------------9-7----------9-7---------0--0------------------------------|
A|-----10-7-10~-7-----10-7-5-7-----10-7---5--7-7-----------------------------|
E|---------------------------------------3--5---0----------------------------|

[Chorus]
e|---------------------------------------------------------------------------|
B|---------------------------------------------------------------------------|
G|---------------------------------------------------------------------------|
D|----------------------------------------9-7--------------------------------|
A|----------------------10----10-12-----------10-7---------------------------|
E|-3-5-0--9h10p9-10-12-----12-------12~--------------------------------------|

[Outro]
e|---------------------------------------------------------------------------|
B|---------------------------------------------------------------------------|
G|---------------------------------------------------------------------------|
D|---------------------------------------------------------------------------|
A|---------------------------------------------------------------------------|
E|-0-3-/7~--7-7-5-3-0--3-0-3-7-5~--7-5-3-5--0-3-/7~--7-7-5-3-0--3-0-3-5-0----|            
Submit corrections

↑ Back to top | Tablatures and chords for acoustic guitar and electric guitar, ukulele, drums are parodies/interpretations of the original songs. You may use it for private study, scholarship, research or language learning purposes only