Home » F » Foals »

Foals - My Number Bass

Artists:  A B C D E F G H I J K L M N O P Q R S T U V W X Y Z # 

My Number Bass

(ver. 2) Click to play this song!
Foals
[Intro Riff]
G|--------------------------------------------------------------------------|
D|--------------------------------------------------------------------------|
A|--------------------------------------------------------------------------|
D|--------------------------------------------------------------------------|

*Drums*

[Intro]
G|--------------------------------------------------------------------------|
D|--------------------------------------------------------------------------|
A|--------------------------------------------------------------------------|
D|--9-9-9---11-11--11-------2-2-4-4--9-9-9---11-11--11------2-2-4-4--2------|

G|--------------------------------------------------------------------------|
D|--------------------------------------------------------------------------|
A|--------------------------------------------------------------------------|
D|--9-9-9---11-11--11-------2-2-4-4--9-9-9---11-11--11-------14-14----11-11-|

'You don't have my number' 

G|-----------------------------------------------------------------------------|
D|-----------------------------------------------------------------------------|
A|-----------------------------------------------------------------------------|
D|--9-9-9---11-11--11-------2-2-4-4--9-9-9---11-11--11------2-2-4-4--2---------|

G|-----------------------------------------------------------------------------|
D|-----------------------------------------------------------------------------|
A|-----------------------------------------------------------------------------|
D|--9-9-9---11-11--11-------2-2-4-4--9-9-9---11-11--11-------14-14----11-11----|

'Cause I feel alive'

G|-----------------------------------------------------------------------------|
D|-----------------------------------------------------------------------------|
A|-----------------------------------------------------------------------------|
D|--9-9-9---11-11--11-------2-2-4-4--9-9-9---11-11--11------2-2-4-4--2---------|

G|-----------------------------------------------------------------------------|
D|-----------------------------------------------------------------------------|
A|-----------------------------------------------------------------------14----|
D|--9-9-9---11-11--11-------2-2-4-4--9-9-9---11-11--11-----14-14---11-11----11/|
'So the people of the city'

G|--------------------------------------------------------------------------|
D|--------------------------------------------------------------------------|
A|--------------------------------------------------------------------------|
D|--------------------------------------------------------------------------|

G|--------------------------------------------------------------------------|
D|--------------------------------------------------------------------------|
A|--------------------------------------------------------------------------|
D|--------------------------------------------------------------------------|

'You don't have my number'
G|-----------------------------------------------------------------------------|
D|-----------------------------------------------------------------------------|
A|-----------------------------------------------------------------------------|
D|--9-9-9---11-11--11-------2-2-4-4--9-9-9---11-11--11------2-2-4-4--2---------|

G|-----------------------------------------------------------------------------|
D|-----------------------------------------------------------------------------|
A|-----------------------------------------------------------------------------|
D|--9-9-9---11-11--11-------2-2-4-4--9-9-9---11-11--11-------14-14----11-11----|

[After Chorus]
G|-----------------------------------------------------------------------------|
D|-----------------------------------------------------------------------------|
A|-----------------------------------------------------------------------------|
D|--9-9-9---11-11--11-------2-2-4-4--9-9-9---11-11--11------2-2-4-4--2---------|

'Now the wolf is knocking at my door'

G|-----------------------------------------------------------------------------|
D|-----------------------------------------------------------------------------|
A|-----------------------------------------------------------------------------|
D|--9-9-9---11-11--11-------2-2-4-4--9-9-9---11-11--11------2-2-4-4--2---------|

G|-----------------------------------------------------------------------------|
D|-----------------------------------------------------------------------------|
A|-----------------------------------------------------------------------14----|
D|--9-9-9---11-11--11-------2-2-4-4--9-9-9---11-11--11-----14-14---11-11----11/|

'I don't need your council'

G|--------------------------------------------------------------------------|
D|--------------------------------------------------------------------------|
A|--------------------------------------------------------------------------|
D|--------------------------------------------------------------------------|

G|--------------------------------------------------------------------------|
D|--------------------------------------------------------------------------|
A|--------------------------------------------------------------------------|
D|--------------------------------------------------------------------------|

'You don't have my number'

G|-----------------------------------------------------------------------------|
D|-----------------------------------------------------------------------------|
A|-----------------------------------------------------------------------------|
D|--9-9-9---11-11--11-------2-2-4-4--9-9-9---11-11--11------2-2-4-4--2---------|

G|-----------------------------------------------------------------------------|
D|-----------------------------------------------------------------------------|
A|-----------------------------------------------------------------------------|
D|--9-9-9---11-11--11-------2-2-4-4--9-9-9---11-11--11-------14-14----11-11----|

[After Chorus]
G|-----------------------------------------------------------------------------|
D|-----------------------------------------------------------------------------|
A|-----------------------------------------------------------------------------|
D|--9-9-9---11-11--11-------2-2-4-4--9-9-9-------------------------------------|

G|-----------------------------------------------------------------------------|
D|-----------------------------------------------------------------------------|
A|-----------------------------------------------------------------------------|
D|--9-9-9---11-11--11-------2-2-4-4--9-9-9-------------------------------------|

'I feel alive'

G|-----------------------------------------------------------------------------|
D|-----------------------------------------------------------------------------|
A|-----------------------------------------------------------------------------|
D|--9-9-9---11-11--11-------2-2-4-4--9-9-9---11-11--11------2-2-4-4--2---------|

G|-----------------------------------------------------------------------------|
D|-----------------------------------------------------------------------------|
A|-----------------------------------------------------------------------14----|
D|--9-9-9---11-11--11-------2-2-4-4--9-9-9---11-11--11-----14-14---11-11----11/|

'Can you even hear me?'

G|--------------------------------------------------------------------------|
D|--------------------------------------------------------------------------|
A|--------------------------------------------------------------------------|
D|--------------------------------------------------------------------------|

G|--------------------------------------------------------------------------|
D|--------------------------------------------------------------------------|
A|--------------------------------------------------------------------------|
D|--------------------------------------------------------------------------|

'You don't have my number'

G|-----------------------------------------------------------------------------|
D|-----------------------------------------------------------------------------|
A|-----------------------------------------------------------------------------|
D|--9-9-9---11-11--11-------2-2-4-4--9-9-9---11-11--11------2-2-4-4--2---------|

G|-----------------------------------------------------------------------------|
D|-----------------------------------------------------------------------------|
A|-----------------------------------------------------------------------------|
D|--9-9-9---11-11--11-------2-2-4-4--9-9-9---11-11--11-------14-14----11-11----|

G|-----------------------------------------------------------------------------|
D|-----------------------------------------------------------------------------|
A|-----------------------------------------------------------------------------|
D|--9-9-9---11-11--11-------2-2-4-4--9-9-9---11-11--11------2-2-4-4--2---------|

G|-----------------------------------------------------------------------------|
D|-----------------------------------------------------------------------------|
A|-----------------------------------------------------------------------------|
D|--9-9-9---11-11--11-------2-2-4-4--9-9-9---11-11--11-------14-14----11-11----|

[Ending]
G|-----------------------------------------------------------------------------|
D|-----------------------------------------------------------------------------|
A|-----------------------------------------------------------------------------|
D|--9-9-9---11-11--11-------2-2-4-4--9-9-9---11-11--11------2-2-4-4--2---------|

G|-----------------------------------------------------------------------------|
D|-----------------------------------------------------------------------------|
A|-----------------------------------------------------------------------------|
D|--9-9-9---11-11--11-------2-2-4-4--9-9-9---11-11--11-------14-14----11-11----|            
Submit corrections

↑ Back to top | Tablatures and chords for acoustic guitar and electric guitar, ukulele, drums are parodies/interpretations of the original songs. You may use it for private study, scholarship, research or language learning purposes only