» » »

Evanescence - Imaginary Tabs

Artists:  A B C D E F G H I J K L M N O P Q R S T U V W X Y Z # 

Imaginary Tabs

(ver. 3) Click to play this song!
Evanescence
 Rating:
4/5 (4 votes)

 Imaginary lessons Tabs too difficult? Try these video lessons and learn fast
 
                There are 2(that i know of, but there might be more) versions of this song. If you went out and bought this cd from a store or got it burnt by a friend then most likely it's Fallen. The other album this song is on is Origin and if you are looking for a tab for the Origin version then the chords are pretty much the same. I might tab out the Origin version later though.

This song is so easy to play in Drop-D tuning(DADGBe from low to high).

Intro/outro
  E                        C                 D
|-----------------------------------------------------------------|
|-----------------------------------------------------------------|
|-----------------------------------------------------------------|
|-2-2-2--2--2--2-2--2--2---2-2-2--2--2--2-2--0--------------------|
|-2-2-2--2--2--2-2--2--2---3-3-3--3--3--3-3--0--------------------|
|-2-2-2--2--2--2-2--2--2---5-5-5--5--5--5-5--0--------------------|
  E                        C                 D
|-----------------------------------------------------------------|
|-----------------------------------------------------------------|
|-----------------------------------------------------------------|
|-2-2-2--2--2--2-2--2--2---2-2-2--2--2--2-2--0--------------------|
|-2-2-2--2--2--2-2--2--2---3-3-3--3--3--3-3--0--*2b\--------------|
|-2-2-2--2--2--2-2--2--2---5-5-5--5--5--5-5--0--------------------|

Verse

Verse part has some acoustic strumming in it. I think it switches inbetween 
E and D but I'm not sure. The other solution is to make the verse a break.
  E   D
|---|---|
|-4-|-3-|
|-3-|-2-|
|-2-|-0-|
|-2-|-0-|
|-2-|-0-|


Chorus
  E                    C               D
|-----------------------------------------------------------------|
|-----------------------------------------------------------------|
|-----------------------------------------------------------------|
|-2--2--2-2-2--2-2-2---2--2--2-2-2--2--0--------------------------|
|-2--2--2-2-2--2-2-2---5--5--5-5-5--5--0--------------------------|
|-2--2--2-2-2--2-2-2---3--3--3-3-3--3--0--------------------------|
  E                    C               D
|-----------------------------------------------------------------|
|-----------------------------------------------------------------|
|-----------------------------------------------------------------|
|-2--2--2-2-2--2-2-2---2--2--2-2-2--2--0--------------------------|
|-2--2--2-2-2--2-2-2---5--5--5-5-5--5--0--------------------------|
|-2--2--2-2-2--2-2-2---3--3--3-3-3--3--0--------------------------|

Pre-Bridge
  B    B    A    G    F#/Gb   E
|-----------------------------------------------------------------|
|-----------------------------------------------------------------|
|-----------------------------------------------------------------|
|-9~---9-9--7-7--5-5--4-4-----2~----------------------------------|
|-9~---9-9--7-7--5-5--4-4-----2~----------------------------------|
|-9~---9-9--7-7--5-5--4-4-----2~----------------------------------|

Bridge
All of the notes on this bar are artificial harmonics or either some kind of wah effect.
|----------------------------------------------------------------|
|----------------------------------------------------------------|
|----------------------------------------------------------------|
|-2v--4-5----7v--5-4----2v--4-5----4v--5-4-----------------------|
|----------------------------------------------------------------|
|----------------------------------------------------------------|

Tab Key
_______
v: vibrato
p: pull-off
h: hammer-on
*: artificial harmonic
b\: bend down in pitch
~: let ring

Song Structure
____________________
Intro/Outro     x1
Verse   
Chorus          x2(2nd time let it ring out on E)
Verse
Chorus          x2
Pre-Bridge      x1
Bridge          x2
Chorus          x2
Intro/Outro     x2
   End let ring on E
            
Submit corrections


        Imaginary lessons Hard to play? Try these video lessons and learn fast Imaginary lessons
        
↑ Back to top | Tablatures and chords for acoustic guitar and electric guitar, ukulele, drums are parodies/interpretations of the original songs. You may use it for private study, scholarship, research or language learning purposes only