» » »

Evanescence - Everybody's Fool Tabs

Artists:  A B C D E F G H I J K L M N O P Q R S T U V W X Y Z # 

Everybody's Fool Tabs

(ver. 1) Click to play this song!
Evanescence
 Rating:
4/5 (4 votes)

 Everybody's Fool lessons Tabs too difficult? Try these video lessons and learn fast
 
                Tuning: Drop-D(DADGBe low to high)

Strumming patterns may not be exact

Tab Key:
h     :hammer-on
p     :pull-off
P.M._ :Palm Mute
~     :Let Ring
  


   Intro-
  |-------------------------------------------------------------|
  |-6------6------6------6--------5------5------5------5--------|
  |----------------------------7------------------------------7-|
  |---7------7-----7------7---------7------7------7------7------|
  |-----5------5-----5------5---------5------5------5------5----|
  |-------------------------------------------------------------|


  |-------------------------------------------------------------|
  |-------------------------------------------------------------|
  |-------------------------------------------------------------|
  |-0-0--10--0~---7h8p7--10-10-10--7----------------------------|
  |-0-0--10--0~---7h8p7--10-10-10--7----------------------------|
  |-0-0--10--0~---7h8p7--10-10-10--7----------------------------|
P.M._ _

  Verse
  |-------------------------------------------------------------|
  |-------------------------------------------------------------|
  |-------------------------------------------------------------|
  |-0-0--0-0--10--0-0--0-0-0-10--0-0--0-0--10---8--3--5--0-0--3-|
  |-0-0--0-0--10--0-0--0-0-0-10--0-0--0-0--10---8--3--5--0-0--3-|
  |-0-0--0-0--10--0-0--0-0-0-10--0-0--0-0--10---8--3--5--0-0--3-|
P.M._ _  _ _      _ _  _ _       _ _  _ _                _ _
  Chorus
  |-------------------------------------------------------------|
  |-------------------------------------------------------------|
  |-------------------------------------------------------------|
  |-0--0-0--0--7h8p7--10--10-10-10--7~--------------------------|
  |-0--0-0--0--7h8p7--10--10-10-10--7~--------------------------|
  |-0--0-0--0--7h8p7--10--10-10-10--7~--------------------------|
     1st half          half point  
  |--------------------------|----------------------------------------|
  |--------------------------|----------------------------------------|
  |--------------------------|----------------------------------------|
  |-8--8--8-8-7--5--5--5-8-7-|-0--0-0-0--0-0-0-10--0--0-0-0--0-0-0-10-|
  |-8--8--8-8-7--5--5--5-8-7-|-0--0-0-0--0-0-0-10--0--0-0-0--0-0-0-10-|
  |-8--8--8-8-7--5--5--5-8-7-|-0--0-0-0--0-0-0-10--0--0-0-0--0-0-0-10-|
P.M.                              _ _ _  _ _          _ _ _  _ _
   2nd Verse Lead part 
  |------------------------|
  |------------------------|
  |------------------------|
  |-0----3-2---------------|
  |---3--------------------|
  |------------------------|

  Bridge
  |------------------------------------------------------------------------|
  |------------------------------------------------------------------------|
  |------------------------------------------------------------------------|
  |-0--0-0--7h8p7--10--10-10--7--8--8-8-8-7h8p7--5--5-5--7--8-8-7-10-10--7-|
  |-0--0-0--7h8p7--10--10-10--7--8--8-8-8-7h8p7--5--5-5--7--8-8-7-10-10--7-|
  |-0--0-0--7h8p7--10--10-10--7--8--8-8-8-7h8p7--5--5-5--7--8-8-7-10-10--7-|

  

  
Song Structure
Intro
  1st bar  x3
  2nd bar  x2
Verse      x2
Chorus
  1st bar  x2
  2nd bar  x1
Verse      x2
Verse lead x2
Chorus 
 1st bar   x2
 2nd bar   x1
Bridge     x1
Chorus
 1st bar   x2
 2nd bar   x1
 1st bar   x2
 2nd bar   x1/2(1st half)
 1st bar   x2
 2nd bar   x1  
________________________
Enjoy!
            
Submit corrections


        Everybody's Fool lessons Hard to play? Try these video lessons and learn fast Everybody's Fool lessons
        
↑ Back to top | Tablatures and chords for acoustic guitar and electric guitar, ukulele, drums are parodies/interpretations of the original songs. You may use it for private study, scholarship, research or language learning purposes only