» » »

Evanescence - Imaginary Tabs

Artists:  A B C D E F G H I J K L M N O P Q R S T U V W X Y Z # 

Imaginary Tabs

(ver. 1) Click to play this song!
Evanescence
 Rating:
4/5 (4 votes)

 Imaginary lessons Tabs too difficult? Try these video lessons and learn fast
 
                -----------------------------------------------------

Tuning

The guitar is tuned rather low in this song

Drop-D, then down a full step and a half

Db --------------------------
Ab --------------------------
Eb --------------------------
B  --------------------------
Gb --------------------------
B  --------------------------

------------------------------------------------------

Intro: Orchestral

Guitar: (listen for rhythm & strumming pattern)

Db --------------------------------------------------------
Ab --------------------------------------------------------
Eb --------------------------------------------------------
B  ----5-5-5---5--5--5-5---5-5---1-1-1---1--1--1-1-0-1-3---
Gb ----5-5-5---5--5--5-5---5-5---1-1-1---1--1--1-1-0-1-3---
B  ----5-5-5---5--5--5-5---5-5---1-1-1---1--1--1-1-0-1-3---


Db --------------------------------------------------------
Ab --------------------------------------------------------
Eb --------------------------------------------------------
B  ----5-5-5---5--5--5-5---5-5---1-1-1---1--1--1-1---------
Gb ----5-5-5---5--5--5-5---5-5---1-1-1---1--1--1-1---5^5---
B  ----5-5-5---5--5--5-5---5-5---1-1-1---1--1--1-1---------

--Guitar Break---

Db --------------------------|------------------------------
Ab --------------------------|------------------------------
Eb --------------------------|------------------------------
B  ----5-5-5----1-1-1--1-3---|--5-5-5----1-1-1--------------
Gb ----5-5-5----1-1-1--1-3---|--5-5-5----1-1-1---5p3-1p0----
B  ----5-5-5----1-1-1--1-3---|--5-5-5----1-1-1--------------
.......................paper flowers...........

Db --------------------------
Ab --------------------------
Eb --------------------------
B  ----5-5-5----1-1-1--1-3---
Gb ----5-5-5----1-1-1--1-3---
B  ----5-5-5----1-1-1--1-3---

--Guitar Break---

Db --------------------------|------------------------------
Ab --------------------------|------------------------------
Eb --------------------------|------------------------------
B  ----5-5-5----1-1-1--1-3---|--5-5-5----1-1-1--------------
Gb ----5-5-5----1-1-1--1-3---|--5-5-5----1-1-1---5p3-1p0----
B  ----5-5-5----1-1-1--1-3---|--5-5-5----1-1-1--------------

Db --------------------------
Ab --------------------------
Eb --------------------------
B  ----5-5-5----1-1-1--1-3---
Gb ----5-5-5----1-1-1--1-3---
B  ----5-5-5----1-1-1--1-3---


--Guitar Break---
Swallowed up in the sound of my screaming....


(easier than it seems)
Db -------------------------------------------------------------------------
Ab -------------------------------------------------------------------------
Eb -------------------------------------------------------------------------
B  ---5-5-5-7-7-7-8-8-10-10-10-8-8-8-7-7-5-5-5-7-7-7-8-8-8-1-1-1-0-0-0-3-3--
Gb ---5-5-5-7-7-7-8-8-10-10-10-8-8-8-7-7-5-5-5-7-7-7-8-8-8-1-1-1-0-0-0-3-3--
B  ---5-5-5-7-7-7-8-8-10-10-10-8-8-8-7-7-5-5-5-7-7-7-8-8-8-1-1-1-0-0-0-3-3--

Db -------------------------------------------------------------------------
Ab -------------------------------------------------------------------------
Eb -------------------------------------------------------------------------
B  ---5-5-5-7-7-7-8-8-10-10-10-8-8-8-7-7-5-5-5-7-7-7-8-8-8-1-1-1-0-0-0-3-3--
Gb ---5-5-5-7-7-7-8-8-10-10-10-8-8-8-7-7-5-5-5-7-7-7-8-8-8-1-1-1-0-0-0-3-3--
B  ---5-5-5-7-7-7-8-8-10-10-10-8-8-8-7-7-5-5-5-7-7-7-8-8-8-1-1-1-0-0-0-3-3--

Db --------------------------------
Ab --------------------------------
Eb --------------------------------
B  ---1-1-1-0-1-3------------------
Gb ---1-1-1-0-1-3------------------
B  ---1-1-1-0-1-3------------------

Db --------------------------|------------------------------
Ab --------------------------|------------------------------
Eb --------------------------|------------------------------
B  ----5-5-5----1-1-1--1-3---|--5-5-5----1-1-1--------------
Gb ----5-5-5----1-1-1--1-3---|--5-5-5----1-1-1---5p3-1p0----
B  ----5-5-5----1-1-1--1-3---|--5-5-5----1-1-1--------------


Db --------------------------------------------------------
Ab --------------------------------------------------------
Eb --------------------------------------------------------
B  ----5-5-5---5--5--5-5---5-5---1-1-1---1--1--1-1-0-1-3---
Gb ----5-5-5---5--5--5-5---5-5---1-1-1---1--1--1-1-0-1-3---
B  ----5-5-5---5--5--5-5---5-5---1-1-1---1--1--1-1-0-1-3---

repeat until end
            
Submit corrections


        Imaginary lessons Hard to play? Try these video lessons and learn fast Imaginary lessons
        
↑ Back to top | Tablatures and chords for acoustic guitar and electric guitar, ukulele, drums are parodies/interpretations of the original songs. You may use it for private study, scholarship, research or language learning purposes only