» » »

Evanescence - Imaginary Tabs

Artists:  A B C D E F G H I J K L M N O P Q R S T U V W X Y Z # 

Imaginary Tabs

(ver. 2) Click to play this song!
Evanescence
 Rating:
4/5 (4 votes)

 Imaginary lessons Tabs too difficult? Try these video lessons and learn fast
 
                Tunning: standard, can be in a drop-d, the guitar 1 is the drop-d and the guitar 2 is the standard

ok:


                Chords:
   A5  F5  G5      
e|---|---|---|---------------------------
b|---|---|---|---------------------------
g|---|---|---|---------------------------
d|-7-|-3-|-5-|---------------------------
a|-7-|-3-|-5-|---------------------------
d|-5-|-1-|-3-|---------------------------


The other "A5" is when the guitar 1 plays this:
|-------|
|-------|
|-------|
|--0-0--|
|--0-0--|
|--0-0--|

So this is  the other "A5"  
|------|
|------|
|------|
|--7---|
|--7---|
|--0---|

To know when we play "the other A5" i marked thath way:

                       Ax5 ok?   
xm- we play 0 the first trhee strings       

Intro:

           A5        Ax5   F5           xm F5 G xm 
e|----------------------------------------|
b|----------------------------------------|
g|----------------------------------------|
d|-5-5-5--5--5--5-5--0-0--1-1-1--1-1-1-1-0-1-3-0|
a|-5-5-5--5--5--5-5--0-0--1-1-1--1-1-1-1-0-1-3-0|
d|-5-5-5--5--5--5-5--0-0--1-1-1--1-1-1-1-0-1-3-0|

           A5        Ax5   F5            
e|----------------------------------------|
b|----------------------------------------|
g|----------------------------------------|
d|-5-5-5--5--5--5-5--0-0--1-1-1--1-1-1-1----|
a|-5-5-5--5--5--5-5--0-0--1-1-1--1-1-1-1-5/-|
d|-5-5-5--5--5--5-5--0-0--1-1-1--1-1-1-1----|

Verse:
-guitar 1 break and the guitar imediatly when play the last F5 turn clean and play the verse of this way touch
 the strings very very sweet (if you have a acustic guitar is best but you need 3 guitars haha, but we dont know 
make this, because, haha, is Evanescence man what do you want?)

Chorus:
        A5            F5          F5 G5
in my field of paper flowers
       A5          F5         A5 G5 F5  
and candy clouds of lullaby
       A5                F5   F5 G5
i lie inside myself for hours
       A5                        F5
and watch my purple sky fly over me

in the second chorus  you finish in the A string play this 5-3-1-0

***************************************************************************
Brigde guitar 2
e|-------------------------------------------------------------------
b|-------------------------------------------------------------------
g|-------------------------------------------------------------------
d|---5-5-5-7-7-7-8-8-10-10-10-8-8-8-7-7-5-5-5-7-7-7-8-8-8-1-1-1-0-0-0-3-3--
a|---5-5-5-7-7-7-8-8-10-10-10-8-8-8-7-7-5-5-5-7-7-7-8-8-8-1-1-1-0-0-0-3-3--
d|---5-5-5-7-7-7-8-8-10-10-10-8-8-8-7-7-5-5-5-7-7-7-8-8-8-1-1-1-0-0-0-3-3--

Brigde guitar 1
e|--------------------------------------------------------------------------
b|--------------------------------------------------------------------------
g|--------------------------------------------------------------------------
d|---5-5-5/7-7-7/8-8/10-10-10\8-8-8\7-7\5-5-5/7-7-7/8-8-8\1-1-1\0-0-0/3-3---
a|--------------------------------------------------------------------------
d|--------------------------------------------------------------------------
Finish Brigde guitar 2 in the secnond Brigde
e|------------------------------------------
b|------------------------------------------
g|------------------------------------------
d|---3--------------------------------------
a|---3--------------------------------------
d|---3--------------------------------------
Finish Brigde guitar 1 in the secnond Brigde
e|------------------------------------------
b|------------------------------------------
g|------------------------------------------
d|------------------------------------------
a|---3--------------------------------------
d|------------------------------------------


 
Song structure:

Intro
Verse  x4
Chorus
Brigde x2  using the termination of the second brigde
Chorus
Intro  x4

Thath is Enjoy !!! this is my first tab so i hope you have played good so this is the most
correct tab you can find on internet so i hope you enjoy!!!
please send me a e-mail to make corrections of the tab or any comment or just to f**k me, haha, i dont know
but e-mail me!!!
please rate!!!
And EVANESCENCE RULZ!!!!!!!! fockop!!
            
Submit corrections


        Imaginary lessons Hard to play? Try these video lessons and learn fast Imaginary lessons
        
↑ Back to top | Tablatures and chords for acoustic guitar and electric guitar, ukulele, drums are parodies/interpretations of the original songs. You may use it for private study, scholarship, research or language learning purposes only