» » »

Evanescence - Call Me When You're Sober Tabs

Artists:  A B C D E F G H I J K L M N O P Q R S T U V W X Y Z # 

Call Me When You're Sober Tabs

(ver. 1) Click to play this song!
Evanescence
 Rating:
4/5 (4 votes)

 Call Me When You're Sober lessons Tabs too difficult? Try these video lessons and learn fast
 
                
Note: If you're gonna play the song in acoustic guitar play the complete chords...

|WATCH THE VIDEO OF ME PLAYING THIS TAB| (so you can hear how it sounds)

                                            you think about it

the song starts with the chorus played on piano, here are the chords for guitar:

    Em C  Em D# G  D# G  C    G
e|-------------------------------|
B|-------------------------------|
G|-----5-----------------5-------|
D|--2--5--2--8--5--8--5--5----5--|
A|--2--3--2--6--5--6--5--3----5--|
E|--0-----0--6--3--6--3-------3--|

Verse:
Note: I wrote 2 different guitars but in the original song they play both riffs with one guitar
    D  Em
e|--------|
B|--------|
G|--------|
D|--7--9--|
A|--5--7--|
E|--5--7--|

(GTR 02)
e|--------------|
B|--12----------|
G|-----12-11-9--|
D|--------------|
A|--------------|
E|--------------|

Pre Chorus:
    C  B
e|--------|
B|--------|
G|--5--4--|
D|--5--4--|
A|--3--2--|
E|--------|

Chorus:
    Em C  Em D# G  D# G  C    G
e|-------------------------------|
B|-------------------------------|
G|-----5-----------------5-------|
D|--2--5--2--8--5--8--5--5----5--|
A|--2--3--2--6--5--6--5--3----5--|
E|--0-----0--6--3--6--3-------3--|

-Verse
-Pre Chorus
-Chorus

Bridge:
(This first part has no guitar, but here are the guitar chords anyway)
    C  Cm G  G  C  Cm G  A# G  A#
e|--------------------------------|
B|-----4-----------4--------------|
G|--5--5--------5--5--------------|
D|--5--5--5--5--5--5--5--8--5--8--|
A|--3--3--5--5--3--3--5--8--5--8--|
E|--------3--3--------3--6--3--6--|
    You never...
    A  D  Em   C  B  Em   A  D  Em   C    B
e|-------------------------------------------|
B|-------------------------------------------|
G|----------------------------------------4--|
D|--7--7--9----7--4--2----7--7--9----7----4--|
A|--7--5--7----3--2--2----7--5--7----3----2--|
E|--5--5--7----3--2--0----5--5--7----3-------|
    How could I?!

-Chorus

At the end play a nice:
e|------------3--|
B|----------3----|
G|--------0------|
D|------0--------|
A|----2----------|
E|--3------------|
instead of last chord =)

ENJOY!
            
Submit corrections


        Call Me When You're Sober lessons Hard to play? Try these video lessons and learn fast Call Me When You're Sober lessons
        
↑ Back to top | Tablatures and chords for acoustic guitar and electric guitar, ukulele, drums are parodies/interpretations of the original songs. You may use it for private study, scholarship, research or language learning purposes only