Home » E » Elvis Presley »

Elvis Presley - Cant Help Falling In Love With You Chords

Artists:  A B C D E F G H I J K L M N O P Q R S T U V W X Y Z # 

Cant Help Falling In Love With You Chords

(ver. 3) Click to play this song!
Elvis Presley
[Intro]
G D G D

[Verse 1]
G    Bm  Em        Am     G    D
Wise men say, only fools rush in
    C D7     Em   Am        G    D    G
but I can't help falling in love with you

G    Bm  Em             Am G  D
Shall I  stay, would it be a sin?
   C D7     Em   Am        G    D    G
If I can't help falling in love with you

[Chorus]
Bm           F#7    Bm            F#7
Like a river flows surely to the sea
Bm            F#7
Darling so it goes
Bm          F#7          Am  D
some things are meant to be

[Verse 2]
G   Bm  Em            Am    G    D
Take my hand, take my whole life too
    C D7     Em   Am        G    D    G
for I can't help falling in love with you

[Chorus]
Bm           F#7    Bm            F#7
Like a river flows surely to the sea
Bm            F#7
Darling so it goes
Bm          F#7          Am  D
some things are meant to be

[Verse 3]
G   Bm  Em            Am    G    D
Take my hand, take my whole life too
    C D7     Em   Am        G    D    G
for I can't help falling in love with you
    C D7     Em   Am        G    D    G
for I can't help falling in love with you

Bonus:
With this chords you can use this tab by Jagdeep Singh:

e|---3-----------7-----------|--3-----------------5--7/-|
B|---------0-----------7-----|--------0-----------------|
G|------0-----0-----7-----7--|-----0-----0-----0--------|
D|---------------------------|--------------------------|
A|---------------------------|--------------------------|
E|---3-----------7-----------|--0-----------0-----------|

e|--8-----------7-----------|--5---------------------|--0-----------2/----------|
B|--------5-----------0-----|--------3----------3----|--------1-----------1-----|
G|-----5-----5-----0-----0--|-----5-----5------------|-----0-----0-----2-----2--|
D|--------------------------|--0-----------0---------|--------------0-----------|
A|--0-----------------------|------------------------|--3-----------------------|
E|--------------3-----------|------------------------|--------------------------|

e|--3-----------5----7----8/---|--7-----------5/----------|
B|--------0-----5--------------|--------0-----------3-----|
G|-----0-----0--5--------------|-----0-----0-----5-----5--|
D|-----------------------------|--------------0-----------|
A|--------------0--------------|--------------------------|
E|--0--------------------------|--3-----------------------|

e|--3-----------3---------||   ||-----------2--0-----------|-----------2--0-----------|
B|--------0-----0---------||   ||--------3-----------------|--------3-----------------|
G|-----0-----0--0---------||   ||-----4-----------3--3--3--|-----4-----------3--3--3--|
D|------------------------||   ||--4--------------4--4--4--|--4--------------4--4--4--|
A|------------------------||   ||--2-----------------------|--2-----------------------|
E|--3-----------3---------||   ||--------------0-----------|--------------0-----------|

e|------------------------|--------------------2-----||
B|--3----3----------3-----|--1-----------------1-----||
G|--4------------4-----4--|--------0--------2-----2--||
D|--4---------------------|-----2-----2--0-----------||
A|--2---------------------|--0-----------------------||
E|------------0-----------|--------------------------||            
Submit corrections

↑ Back to top | Tablatures and chords for acoustic guitar and electric guitar, ukulele, drums are parodies/interpretations of the original songs. You may use it for private study, scholarship, research or language learning purposes only