Home » E » Elvis Presley »

Elvis Presley - Cant Help Falling In Love With You Bass

Artists:  A B C D E F G H I J K L M N O P Q R S T U V W X Y Z # 

Cant Help Falling In Love With You Bass

(ver. 1) Click to play this song!
Elvis Presley
Tuning: Standard

Verse 1: (Wise men say...)
G|---------------------------------------------------------------------------|
D|----7-----------------5---4---2--------------------------------------------|
A|5--------5------7-9-------------------------------7-9-10-9----7---5--------|
E|----------------------------------0-5---7---10-----------------------------|
(Shall I stay...)
G|---------------------------------------------------------------------------|
D|----7-----------------5---4---2--------------------------------------------|
A|5--------5------7-9-------------------------------7-9-10-9----7---5--------|
E|----------------------------------0-5---7---10-----------------------------|


Bridge 1: (Like a river flows...)                         (Some things...)
G|--------6-4-----------6-4-----------6-4-----------6-4----2-2----2----------|
D|------6-------------6-------------6-------------6--------------4-4---5---7-|
A|4-3-----------4-3-----------4-3-----------4-3------------------------------|
E|---------------------------------------------------------------------------|


Verse 2: (Take my hand...)
G|---------------------------------------------------------------------------|
D|----7-----------------5---4---2--------------------------------------------|
A|5--------5------7-9-------------------------------7-9-10-9----7---5--------|
E|----------------------------------0-5---7---10-----------------------------|


Bridge 2: (Like a river flows...)                         (Some things...)
G|--------6-4-----------6-4-----------6-4-----------6-4----2-2----2----------|
D|------6-------------6-------------6-------------6--------------4-4---5---7-|
A|4-3-----------4-3-----------4-3-----------4-3------------------------------|
E|---------------------------------------------------------------------------|


Verse 3: (Take my hand...)
G|---------------------------------------------------------------------------|
D|----7-----------------5---4---2--------------------------------------------|
A|5--------5------7-9-------------------------------7-9-10-9----7---5--------|
E|----------------------------------0-5---7---10-----------------------------|
 

Outro: (For I can't help...)                          
G|---------------------------------------------------------------------------|
D|---------------------------------------------------------------------------|
A|----------------7-9-10-9----7---5------------------------------------------|
E|0-5---7---10---------------------------------------------------------------|


            
Submit corrections

↑ Back to top | Tablatures and chords for acoustic guitar and electric guitar, ukulele, drums are parodies/interpretations of the original songs. You may use it for private study, scholarship, research or language learning purposes only